Oops, an error
Loading. Please wait.

Honey Slider intro tab

778 views 3 this week
1 commentread comment
1 2 3 4 5
x 4
add to favorites
×
Save as Personal and add changes to this tab that will be seen only by you. Learn more ›
×
You can save this tab as Personal to edit and correct it or add notes. All changes will be seen only by you. Learn more »
launch autoscroll
font size
0
reset
how to read this tab
guitar tuner
edit
Autoscroll
slow
fast
+/-
esc
set tempo
stop
-------------------------------------------------------------------------------
                             Honey Slider - Houndmouth
-------------------------------------------------------------------------------
Tabbed by: Lee Baker
E-mail: lee.bug8800@gmail.com

This is my first tab. I learned this song by ear. For the most part I think its pretty
accurate. This is a great song by a great band. Enjoy.

Tuning: Half-Step Down  D#-G#-C#-F#-A#-D#

h= hammer on
p= pull off
b= bend
r= release 

D#|---------------------------------------------------------------------------|
A#|---------------------------------------------------------------------------|
F#|-----9-9-9--6--4--9-9-9--6--4--2---9-9-9--6--4--2h4p2--------4b4444r-------|
C#|---7-----------------------------4--------------------4--2h4---------------|
G#|---------------------------------------------------------------------------|
D#|---------------------------------------------------------------------------|

D#|---------------------------------------------------------------------------|
A#|---------------------------------------------------------------------------|
F#|-----9-9-9--6--4--9-9-9--6--4--2---9-9-9--6--------------------------------|
C#|---7-----------------------------4-----------------------------------------|
G#|---------------------------------------------------------------------------|
D#|--------------------------------------------0------------------------------| 

            
            
Suggest correction
Creating personal tab
Creating personal tab
You can edit any tab online and save it as your Personal.

You can edit, replace or remove any tab part or add personal notes – all changes will be seen only by you.

Personal tabs can be accessed anytime from any device, even offline.
Learn more »
comments
print report bad tab
1 comment total.
0 reply
Redundundancies 10 Sep 21, 2016 10:50 PM

Nice tab! Only suggestion is at the end of line 2 before the final open D# string, is to play the 6 on the F# string as a 6 pull off to 4 and simultaneous muting of the string right before the open bass chord - I believe that's how they played it live.

Cheers!

guest
You may want to rate the tab now too:
select rating
Wanna post a correction for this tab? Suggest correction