Oops, an error
Loading. Please wait.

Uhaul Tab

228 views 1 this week
no commentswrite comment
1 2 3 4 5
excellent!
x 1
add to favorites
launch autoscroll
font size
0
reset
how to read this tab
guitar tuner
Tab Pro tools
  • play this tab
  • loop segment
  • change instrument
  • show fretboard
  • metronome
Autoscroll
slow
fast
+/-
esc
set tempo
stop
Contributor
Difficulty
Tuning
intermediate
C G C F A D
Uhaul
Hourcast
State Of Disgrace
Droped C


MAIN RIFF
D|--------------------------------------------------------------------|
A|--------------------------------------------------------------------|
F|--------------------------------------------------------------------|
C|-1-0--0---0-1--1---1-4--4--4-3-3-3-0---0---0-1--1---1-4--4---4-3-00-|
G|-1-0--0---0-1--1---1-4--4--4-3-3-3-0---0---0-1--1---1-4--4---4-3-00-|
C|-1-0--0---0-1--1---1-4--4--4-3-3-3-0---0---0-1--1---1-4--4---4-3-00-|
                                                                   ..

D|------------------------------------------------------------------|
A|-3-------------------------------------------------------------5*-|
F|-2--------------------------------------------------------5*---5*-|
C|-0--0--0-1--1----1-4--4--4-3-3-3-0---0---0-1--1---1-4--4----5*----|
G|-0--0--0-1--1----1-4--4--4-3-3-3-0---0---0-1--1---1-4--4----------|
C|-0--0--0-1--1----1-4--4--4-3-3-3-0---0---0-1--1---1-4--4----------|

D|--------------------------------------------------------------------|
A|--------------------------------------------------------------------|
F|--------------------------------------------------------------------|
C|-1-0--0---0-1--1---1-4--4--4-3-3-3-0---0---0-1--1---1-4--4---4-3-00-|
G|-1-0--0---0-1--1---1-4--4--4-3-3-3-0---0---0-1--1---1-4--4---4-3-00-|
C|-1-0--0---0-1--1---1-4--4--4-3-3-3-0---0---0-1--1---1-4--4---4-3-00-|
                                                                   ..

D|--------------------------------------------------------------------|
A|--------------------------------------------------------------------|
F|--------------------------------------------------------------------|
C|-1-0--0---0-1--1---1-4--4--4-3-3-3-0---0---0-1--1---1-4--4---4-3-00-|
G|-1-0--0---0-1--1---1-4--4--4-3-3-3-0---0---0-1--1---1-4--4---4-3-00-|
C|-1-0--0---0-1--1---1-4--4--4-3-3-3-0---0---0-1--1---1-4--4---4-3-00-|
                                                                   ..

VERSE(This is all really sketchy and hard to hear on the record, but this is close)
Guitar 1
D|-0-----------|
A|-3-----------|
F|-2---5---2---|
C|-0---5---0---|
G|-----3---0---|
C|---------0---|

Guitar 2 (W/ strange effect)
D|-22--------------|
A|-----------------|
F|------19-17---14-|
C|-----------------|
G|-----------------|
C|-----------------|


Chorus
guitar 1
D|-------------------------------------------|
A|-3-----------------------------------------|
F|-2------5-5---555---5-5--------------------|
C|-0------5-5---555---5-5---3---3-3-33---555-|
G|-0------3-3---333---3-3---3---3-3-33---555-|
C|-0------------------------3---3-3-33---555-|

Guitar 2           pt.1                         pt.2
D|---------------------|----------------------------|
A|---------------------|----------------------------|
F|-7------10--9------5-|-7------10-12-10---9------5-|
C|-x------x---x------x-|-x------x--x--x----x------x-|
G|-5------8---7------3-|-5------8--10-8----7------3-|
C|---------------------|----------------------------|


Bridge
D|--------------------------------------------------------|
A|--------------------------------------------------------|
F|--------------------------------------------------------|
C|-7h8-88--7h8-88--7h8-88--7-xx-8--5-5-5h8-88--4--4/5-5/7-|
G|-7h8-88--7h8-88--7h8-88--7-xx-8--5-5-5h8-88--4--4/5-5/7-|
C|-7h8-88--7h8-88--7h8-88--7-xx-8--5-5-5h8-88--4--4/5-5/7-|


Solo
D|-----------------------------------------------------|
A|-----------------------------------------------------|
F|-7-7-77-5-7-10--10--10--10--10-10-9--9--9--9--9-9----|
C|-x-x-xx-x-x-x---x---x---x---x--x--x--x--x--x--x-x----|
G|-5-5-55-3-5-8---8---8---8---8--8--7--7--7--7--7-7----|
C|-----------------------------------------------------|

D|---------------------------|---------------------|
A|---------------------------|---------------------|
F|--5-5--5-5/7-7/5---5---7---|--5/7--77-7-77-5-7-7-|
C|--x-x--x-x/x-x/x---x---x---|--x/x--xx-x-xx-x-x-x-|
G|--3-3--3-3/5-5/3---3---5---|--3/5--55-5-55-3-5-5-|
C|---------------------------|---------------------|

....and just repeat these riffs.
comments
We did not receive enough feedback on this tab! Please rate:
print report bad tab
1 2 3 4 5
I want to post or [tab]
guest
You may want to rate the tab now too:
select rating
Please do not post tabs as comments. Select "correction" instead!