Oops, an error
Loading. Please wait.

Introduction Tab

409 views 1 this week
no commentswrite comment
1 2 3 4 5
please rate
add to favorites
launch autoscroll
font size
0
reset
how to read this tab
guitar tuner
Tab Pro tools
  • play this tab
  • loop segment
  • change instrument
  • show fretboard
  • metronome
×
Best way to learn
"Introduction"
Autoscroll
slow
fast
+/-
esc
set tempo
stop
Difficulty
Tuning
advanced
D# G# C# F# A# D#
"Introduction"

Tuning: 1/2 step down. 
low to high: Eb,Ab,C#,F#,Bb,eb
Finger Picked
Smaller Brackets are turnarounds

    G          Gsus2     G

|--------------------------------------------|      |--------|
|--3-----------3---------3-------------------|      |--------|
|--0---0-------0h2-------0-------------------|  X2  |--------|
|------0-----0---------------0----------0----|      |-----0--| 
|----------------------------------0h2-------|      |-0h2----|
|--3------3----------3---3------3----------3-|      |--------|

    Bm7            Emsus4   Bm7


|-------------------------------------------------|      |--------|
|-----7--------------7h8p7------------------------|      |--------|
|-----7--------------7h9p7----7-------------------|  X2  |--------|
|-----7----7-----7------------7--------------7----|      |------7-|
|-----9---------------------------9-----7h9-------|      |-7h9----|
|-0---7-------7---------------7------7----------7-|      |--------|


    Dsus4add9              Dsus4
 
 
 |--/12--------------12-----10--------------10----|
 |--/10--------------10-----10---10-----10--------|
 |--/12---12---12-----------12------12------------|
 |---0-------0-----------0--0-------------------0-|
 |------------------------------------------------|
 |------------------------------------------------|

    Cm              Cmadd9    Cm

 |---8--------------8h10------8--------------8---|
 |---8--------------8---------8-------------8----|
 |---8----8------8----------------8------8-------|
 |---10------10------------10-10-----10----------|
 |-----------------------------------------------|
 |-----------------------------------------------|

    G                 Fsus2           Em                 

 |-----------------|---------------|------------------------------|
 |--3---------3----|--1--------1---|--0-------------2--2----------|
 |--0---------0----|--0--0---0-----|--2--2--------2----2-------2--|
 |--0--0----0------|--3----3-----3-|--2--2---0^2---------2---2----|
 |-----------------|---------------|--0----0-----------0---0------|
 |--3-----3------3-|---------------|-----------------------------0|

   C                                   B7
 
 |----------------------------------|---------------2--------2----|
 |-1-------1h3--1--0--1--------1----|----------0------0----0------|
 |-0--0---------0--0-----0---0------|------2-------------2--------|
 |------2------------------2--------|----1------------------------|
 |-3-------3----3--3--3-----------0-|--2-----2----2------2--------|
 |----------------------------------|---------------------------2-|

    Em                 G/C

 |--0--0-0-----------------|
 |--0--0-------------------|
 |--0---------------0------|
 |--2-----------2-------2--|
 |--2---------2---2-----3--|
 |--0-------0-----------3--|  repeat all with whistling


End Turn-around:

After the B7 go back to C then pluck and hold a D major(brief rest)
back to the C, B7, Emin, G/C, all the same pattern or more or less the same.
then:
   G/c                Em                 G/c D  Eb  F(Csus4 6(no 5th)/into "It Could be Easy Key")

 |-----------------------------------------------------|
 |---------------------0-------------------------------|
 |--------------0-------------------0------------------|
 |--2------2-----------2-------2-----------2--4--5--7--|
 |--3----3-------------2-----2-------------3--5--6--8--|
 |--3--3-----3-----3---0---0------0----0---3--5--6--8--|  end
  
comments
We did not receive enough feedback on this tab! Please rate:
print report bad tab
1 2 3 4 5
I want to post or [tab]
guest
You may want to rate the tab now too:
select rating
Please do not post tabs as comments. Select "correction" instead!