Oops, an error
Loading. Please wait.

It Could Be Easy Tab

458 views 1 this week
no commentswrite comment
1 2 3 4 5
1 last vote to show rating
add to favorites
launch autoscroll
font size
0
reset
how to read this tab
guitar tuner
Autoscroll
slow
fast
+/-
esc
set tempo
stop
Help us to improve Ultimate-Guitar.com Take our survey!
×
Difficulty
intermediate
"It Could Be Easy"

Standard Tuning

Acoustic Guitar 1 Chords. Listen for changes


Verses:

  F/c     Csus4    Am      Asus2  Am   Am7           Am    Bm7   C   Eb

|-------------------0------0-----0-----3----------|-------------------------|
|--1-------1--------1------0-----1-----1----------|--1-----0----1-----------|
|--2-------0--------2------2-----2-----2----------|--2-----2----0---0-------|
|--3-------3--------2------2-----2-----2----------|--2-----0----2---2--3----|
|--3-------3--------0------0-----0-----0----------|--0-----2----3-----------|
|-------------------------------------------------|-------------------------|


Chorus:

   F    Fm    C     G,Am,F,Fm

|--1-----1----0-----3---------|
|--1-----1----1-----0---------|
|--2-----1----0-----0---------|
|--3-----3----2-----0---------|
|--3-----3----3-----2---------|
|--1-----1----------3---------|

Bridge/Solo Chords

   C   C9  F,Fm

|--0---0-----|
|--1---1-----|
|--0---3-----|
|--2---2-----|
|--3---3-----|
|------------|


End tag chord is a Cm aug5(Ab)  then end on Am

|-----|
|--4--|
|--5--|
|--6--|
|--6--|
|-----|


Electric Guitar One

Intro lick (w/tremolo)

|---------8-----------|
|----10-----10---10---|
|--9----9------9------| repeat a few times then strum the triad
|---------------------|
|---------------------|
|---------------------|


Second Verse

   Am       Am

|--5-5-5x5---8---8--8--8--------|
|--5-5-5x5---10--10-10-10-------|
|--5-5-5x5---9---9--9--9---etc--|
|--7-7-7x7----------------------|
|-------------------------------|
|-------------------------------|


Solo (w/synth wah and envelope filter)

|-------------------------------------------------------------------|
|------------------------------------------------------8-----8h10~--|
|-------5--5/7~--------5--5/7~--------5--5/7~-----7/9-----9---------|
|---/7-------------/7------------/7---------------------------------|
|-------------------------------------------------------------------|
|-------------------------------------------------------------------|


|---------------------8--8h10~~---10h11p10p8------8--10--8h10h11--11-10-8----|
|------8--8h10~---10--------------------------10--------------------------10-|
|--/9------------------------------------------------------------------------|
|----------------------------------------------------------------------------|
|----------------------------------------------------------------------------|
|----------------------------------------------------------------------------|


|-------------------------------------------------------------|
|--10/13~---13--11~--11-10~--9--9------9---12--13~--13---12~\-|
|----------------------------------10-------------------------|
|-------------------------------------------------------------|
|-------------------------------------------------------------|
|-------------------------------------------------------------|

Electric Guitar 2


Intro Lick

|-------12-------10------8-----7----5----|
|-----------------------------------5----|
|-10/12----12\10----10\9---7\9------5----|
|-----------------------------------7----|
|----------------------------------------|
|----------------------------------------|

   verse 1                        Verse 2,repeat intro lick


|--12--10--8--7--5---|       |--12x--10x--8x--7x-----------------------|
|----------------5---|       |----x----x---x---x-----------------------|
|--12--10--9--7--5---|       |--12x--10x--9x--7x-----------------------|
|----------------7---|       |-----------------------3--5--------------|
|--------------------|       |--------------------0--------------0~----|
|--------------------|       |-----------------------------3^1/4-------|

|------5-----7-----8------10/12-12/13~--|
|---------------------------------------|
|--3/5---5/7---7/9---9/10---------------|
|---------------------------------------|
|---------------------------------------|
|---------------------------------------|

Chorus

|-------------------------------------------------------------------------------|
|----------16--15-----------15/17~---------16--15------------15/17--15--17------|
|--14--17---------17--14/12---------14--17---------17-14\12----------------14~--|
|-------------------------------------------------------------------------------|
|-------------------------------------------------------------------------------|
|-------------------------------------------------------------------------------|


|-----------------------------1---|
|-----------16/15----15~------1---|
|--14--17---------17----------1---|
|-----------------------------3---|
|---------------------------------|
|---------------------------------|


Bridge

|--12--10--8---7\5--5/7---12--10--8---7/5--7/5---------15p12---------12--8--|
|-----------------------------------------------------x------13\10----------|
|--12--10--9---7\5--5/7---12--10--9---7/5--7/5-------x----------------------|
|---------------------------------------------------x-----------------------|
|---------------------------------------------------------------------------|
|---------------------------------------------------------------------------|


|-----x12p8-------------------------------------------------------------|
|----x-------10----13--10-----------------------------------------------|
|---x-----------9-----------8p7-----7-------7---7^9-7^9--7^9p7--7p5~----|
|--x----------------------------10----7--10-----------------------------|
|-----------------------------------------------------------------------|
|-----------------------------------------------------------------------| end
Suggest correction
Give kudos to tab author, rate the tab!
1 2 3 4 5
comments
print report bad tab
guest
You may want to rate the tab now too:
select rating
Wanna post a correction for this tab? Suggest correction