Oops, an error
Loading. Please wait.

Live And Learn Tab

550 views 1 this week
no commentswrite comment
1 2 3 4 5
please rate
add to favorites
launch autoscroll
font size
0
reset
how to read this tab
guitar tuner
Autoscroll
slow
fast
+/-
esc
set tempo
stop
Help us to improve Ultimate-Guitar.com Take our survey!
×
Difficulty
advanced
"Live and Learn"

Standard Tuning

Verse Chords: Am, E, G, D

guitar breaks: F, E, Am, C

Chorus: F, C, G, Am, G

Solo: Am, Dm, G, C, Gsus4

Electric Guitar 1 (Joel)

Intro lick/ before and during second verse


|-----12------------------------12----------------------|
|--10----13-----12-10-9-10---------13----12--10-9-10----|
|------------9-------------9/12-------9-----------------|
|-------------------------------------------------------|   X2
|-------------------------------------------------------|
|-------------------------------------------------------|


Guitar Break 1

|----------------------------------------------------|
|----------------------------------------------------|
|---------12h14~-----------------------12--14--------|
|--14/15~-----------------------14-15~---------------|
|----------------11--12~--14-15---------------11~----|
|----------------------------------------------------|


Bridge Finger picked


|---------8-----5------------------8----5----------------|
|--5-------------------6-----5-------------------6-------|
|-----5-------------------------5------------------------|
|--7---------7------7----7---7---------7------7------7---|
|--------------------------------------------------------|
|--------------------------------------------------------|

|---------8-----5-------------------8-----5--------------|
|--5-----------------6-------5------------------6--------|
|-----5--------------------------5-----------------------|
|--5---------5-----5-----5---5---------5-----5----5------|
|--------------------------------------------------------|
|--------------------------------------------------------|

|----------------0-------------------------------0-------------------|
|----------------1-------------------------------1-------------------|
|----------------2-------------------------------2-------------------|
|--3-----2-------2------------------3-----2------2-------------------|
|-----5----------0---0--2--3---7-------5---------0---0---2---3---7---|
|-----------0--------------------------------0-----------------------|


|---------------------------------------0----------------------------|
|---------------------------------------1----------------------------|
|---------------------------------------2----------------------------|
|-------3/5---3---0-------2p0h2--2------2----------------------------|
|------------------------------------0--0---0-2-3--7-----------------|
|--1------------------0----------------------------------------------|

|--------------12----12----12---12---|
|--10--12-13-----13----13----13---13-|
|------------------------------------|  X2 second time more picking
|------------------------------------|
|------------------------------------|
|------------------------------------|

Electric Guitar 2 (David)


Chorus1: uses Fsus2, Csus2, Gsus2

|---------------------------------------------|
|---------------------------------------------|
|---------0-------0--------0---------0--------|
|---------------0-------0-----------------0---|
|-----3-------3-------------------------------|
|--1------------------3-------3--3/5----3-----|


Guitar Break 1                                           *w Delay

|------------------------------12--13~--10--12~-------17\-------|
|--------------9--10~--12--13~-----------------/13~-------------|
|--/10~--7--9---------------------------------------------------|
|---------------------------------------------------------------|
|---------------------------------------------------------------|
|---------------------------------------------------------------|


Chorus2:

|----------------------------------------------------|
|----------------------------------------------------|
|-------------------5--5-----------------------------|
|--/2--0--------3---5--5--5--5--/--7--5--------------|
|---------3--2--3---3--3--5--5--/--7--5--------------|
|---------------1---------3--3--/--5--3--------------|

Bridge Lead


|------------------------------15--------------------------------------------------------|
|---------------------------/15----------------------------------------------------------|
|--12b14r12------------------------14\12------12---14--16--17-16--14--12h14p12~----------|
|-------------12--12h14~-------------------14------------------------------------12h14~--|
|----------------------------------------------------------------------------------------|
|----------------------------------------------------------------------------------------|

|--------------------------------------------------------------------|
|--------------------------------------------------------------------|
|----------12----12h14--12-------------------------------------------|
|--0h12014----14-----------12h14~--12h14-12--12----------------------|
|------------------------------------------------14h15--14--14-------|
|--------------------------------------------------------------------|


|---------------------------------------------------------------12-13~--10-12--/20--17----|
|-----------------------------------------------/13--10--12--13---------------------------|
|----------------------------------/10~--7--9~--------------------------------------------|
|--/7~--/9~--/10~--/12~/14~-/17~----------------------------------------------------------|
|-----------------------------------------------------------------------------------------|
|-----------------------------------------------------------------------------------------|


Solo (Melody) Guitar 1


|------------------12--13~--12--10-------------------13--12~--8----|
|--/13~--12--10~--------------------13--12--10/~8------------------|
|------------------------------------------------------------------|
|------------------------------------------------------------------|
|------------------------------------------------------------------|
|------------------------------------------------------------------|

                                                          *pinch with pick and middle finger

|--10p8-12p8-10p8 12p8--13p12-15p12-13p12-15p12--15/17~-----------|
|--------------------------------------------------------*17\13*--|
|-----------------------------------------------------------------|
|-----------------------------------------------------------------|
|-----------------------------------------------------------------|
|-----------------------------------------------------------------|
                      with sweep picking

|-------------------------13-17p13-------------------13-17p13----------|
|--12h13----------------15--------15---------------15--------15--------|
|--------12/14~-------14------------14-----------14------------14------|
|-------------------15----------------15-------15----------------15----|
|------------------17-------------------17---17--------------------17--|
|----------------------------------------------------------------------|

|----------13-17p13------------------13-17p13---------------7-10p7-------|
|--------15--------15--------------15--------15------------8------8------|
|------14------------14----------14------------14---------7--------7-----|
|----15----------------15------15----------------15------9----------9----|
|--17--------------------17--17--------------------17--10------------10--|
|------------------------------------------------------------------------|


|-------7-10p7-----------7-10p7-----------7-10p7----10--7h10p7-------------------------------------|
|------8------8---------8------8---------8------8--------------8---8--/13~--10-12-12^13r12--10~~~--|
|-----7--------7-------7--------7-------7------------------------9---------------------------------|
|----9----------9-----9----------9-----9-----------------------------------------------------------|
|--10------------10-10------------10-10------------------------------------------------------------|
|--------------------------------------------------------------------------------------------------|


Solo Guitar 2 (Harmony)


|-----------12-13~-12--10-------------------------------------------------------------------------|
|-/13-12-10----------------13--\8--6--5~--/8--6~---5--6p5-8p5-6p5-8p5---10p8-12p8--10p8-12p8------|
|-------------------------------------------------------------------------------------------------|
|-------------------------------------------------------------------------------------------------|
|-------------------------------------------------------------------------------------------------|
|-------------------------------------------------------------------------------------------------|

             *pinch                       with sweep picking

|----------------------------------------------17-20p17-----------------17-20p17--------------|
|--12/13~-----*12\8--8h10--------------------18--------18-------------18--------18------------|
|--------------------------7/9~------------17------------17---------17------------17----------|
|----------------------------------------19----------------19-----19----------------19--------|
|--------------------------------------20--------------------20-20--------------------20------|
|---------------------------------------------------------------------------------------------|


|----------17-20p17-----------------17-20p17-------------------10-13p10-----------------10-13p10--|
|--------18--------18-------------18--------18---------------12--------12-------------12----------|
|------17------------17---------17------------17-----------10------------10---------10------------|
|----19----------------19-----19----------------19-------12----------------12-----12--------------|
|--20--------------------20-20--------------------20---14--------------------14-14----------------|
|-------------------------------------------------------------------------------------------------|


|---13-10h13p10-------12----10--10b12--8~-----|
|-12-----------12--12---13--------------------|
|----------------13--------------------9~-----|
|---------------------------------------------|
|---------------------------------------------|
|---------------------------------------------|

end
Suggest correction
Give kudos to tab author, rate the tab!
1 2 3 4 5
comments
print report bad tab
guest
You may want to rate the tab now too:
select rating
Wanna post a correction for this tab? Suggest correction