Oops, an error
Loading. Please wait.

Buckets For Bullet Wounds Bass Tab

1,487 views 1 this week
2 commentsread comments
1 2 3 4 5
please rate
add to favorites
launch autoscroll
font size
0
reset
guitar tuner
Autoscroll
slow
fast
+/-
esc
set tempo
stop
Help us to improve Ultimate-Guitar.com Take our survey!
×
Author
-----------------------------------------------------------------------------
                   BUCKETS FOR BULLET WOUNDS-House of Heroes
-----------------------------------------------------------------------------

Tabbed by: mike_biro727
e-mail: gatorboy727@yahoo.com

Intro
G|--------------------------------------------------------------------------|
D|--------------------------------------------------------------------------|
A|-----1--------------------------------------------------------------------|
D|-1-3---3-55-5-5-5--1-11-1--0-00-0--1-11-1/55xx5-5--1-11-1--0-00-0--1-11-1-|

G|-----2-3-2---------|
D|-5-0-------5-3-5---|
A|-------------------|
D|-------------------|

Verse
G|--------------------------------------------------------------|
D|--------------------------------------------------------------|
A|-6-66-6--5-55-5--6-66-6/1010-10-10-10--6-66-6--5-55-5--6-66-6-|
D|--------------------------------------------------------------|

Prechorus
G|-----2-3-2-------------------------|
D|-5-0-------5-3-5-5~----------------|
A|-----------------------------------|
D|------------------------5~5~5~5~---|

Chorus
G|--------------------------------|
D|--------------------------------| x2
A|-------------------------1-1-1-1|
D|-1-1-1-1-3-3-3-3-5-5-5-5--------|

G|---------------------------------------------------------2-3-2-----|
D|-----------------------------------------------------5-0-------5-3-|
A|-------------------------1-1-1-1-----------------------------------|
D|-1-1-1-1-3-3-3-3-5~-35~----------1-1-1-1-3~--5~--5~----------------|

Intro

G|----------------------------------------------------------------------|
D|----------------------------------------------------------------------|
A|----------------------------------------------------------------------|
D|-55-5-5-5--1-11-1--0-00-0--1-11-1/55xxxx5-5--1-11-1--0-00-0--1-11-1---|

G|-----2-3-2---------|
D|-5-0-------5-3-5---|
A|-------------------|
D|-------------------|

Verse 2
G|--------------------------------------------------------------|
D|--------------------------------------------------------------|
A|-6-66-6--5-55-5--6-66-6/1010-10-10-10--6-66-6--5-55-5--6-66-6-|
D|--------------------------------------------------------------|

G|-----------------------------------|
D|-----------------------------------|
A|-----------------------------------|
D||-55-5-5-5--1-11-1--0-00-0--1-11-1-|

Prechorus
G|-----2-3-2-------------------------|
D|-5-0-------5-3-5-5~----------------|
A|-----------------------------------|
D|------------------------5~5~5~5~---|

Chorus 2
G|--------------------------------|
D|--------------------------------| x2
A|-------------------------1-1-1-1|
D|-1-1-1-1-3-3-3-3-5-5-5-5--------|

G|-------------------------------------------------|
D|-------------------------------------------------|
A|-------------------------1-1-1-1-----------------|
D|-1-1-1-1-3-3-3-3-5~-35~----------1-1-1-1-3~--5~--|

Bridge
G|---------------------------------|
D|---------------------------------|x3
A|-----1-3-----3-5-----6-5-1-3-5-1-|
D|-1-1-----3-3-----5-5-------------|

G|-------------------|
D|-------------------|
A|-------------------|
D|1~--3~--5--5--5--5-|

Acoustic Part

Outro
G|--------------------------|
D|--------------------------|
A|-----1--------------1-----|
E|-1-3---3-5~\----1-3---3---|

G|--------------------------------------------------------------------|
D|--------------------------------------------------------------------|
A|--------------------------------------------------------------------|
D|-55-5-5-5--1-11-1--0-00-0--1-11-1-5-5-55-5-1-11-1--0-00-0--1-11-1---|

G|--------------------------------------------------------------------|
D|--------------------------------------------------------------------|
A|--------------------------------------------------------------------|
D|-5-5-5-5--1-11-1--0-00-0--1-11-1--5-5-55-5-1-11-1--0-00-0--1-11-1---|

G|-----2-3-2----------|
D|-5-0-------5-3-5-5--|
A|--------------------|
D|--------------------|

There you go, don't hesitate to give corrections. Working on the rest of the album as well.
Til next time.
Suggest correction
Give kudos to tab author, rate the tab!
1 2 3 4 5
comments
print report bad tab
2 comments total.
0 reply
mike_biro727 154 wrote on December 1 2009, 03:39 pm

i noticed a few mistakes and just corrected them they should be fixed anyday.

0 reply
mike_biro727 154 wrote on November 21 2010, 06:52 pm

Fixed the prechorus riff and the bridge, so this tab should be perfect within a few days.

guest
You may want to rate the tab now too:
select rating
Please do not post tabs as comments. Select "correction" instead!