Oops, an error
Loading. Please wait.

Drown Tab

743 views 1 this week
no commentswrite comment
1 2 3 4 5
please rate
add to favorites
launch autoscroll
font size
0
reset
how to read this tab
guitar tuner
Autoscroll
slow
fast
+/-
esc
set tempo
stop
Help us to improve Ultimate-Guitar.com Take our survey!
×
Author
Difficulty
intermediate
Hey, I tabbed this song cause nobody else did. Its a pretty cool song and easy to 
Please rate it. Thanks. God bless.


Intro:
e|--------------------------------------|----|--------------------|
B|--------------------------------------|----|--------------------|
G|--------------------------------------|----|-----------------9~-|
D|----------------------------10--------|-x3-|-11-------9------9~-|
A|----------------------------10-(x4)---|----|-11-(x4)--9-(x4)-7~-|
E|0-0-7-0-9-0-11-0-12-0-11-0--8---------|----|-9--------7------7~-|

Verse 1:
e|---------------------|----|-------------------|
B|---------------------|----|-------------------|
G|-999~---11-11-11-9~--|----|--11~--------------|
D|-999~---11-11-11-9~--|----|--11~---7------9~--|
A|-777~---9--9--9--7~--|----|---9~---7-(x4)-9~--|
E|---------------------|----|--------5------7~--|
   ^ "The waters at our knees..."
Chorus:
e|---------------------------------------------|----|---------|
B|---------------------------------------------|----|---------|
G|--------9------4------7-------------10-------|----|---------|
D|-7------7-(x4)-4-(x4)-7-(x4)-7------10-(x4)--|-x3-|-9-------|
A|-5-(x4)-7------2------5------7-(x4)--8-------|----|-9-(x16)-|
E|-5---------------------------5---------------|----|-7-------|
                                "Learn to swim..."---^
----replay intro----------------------------------------------------|
e|--------------------------------------|----|----------------------|
B|--------------------------------------|----|----------------------|
G|--------------------------------------|----|-----------------9~---|
D|----------------------------10--------|-x2-|-11-------9------9~---|
A|----------------------------10-(x4)---|----|-11-(x4)--9-(x4)-7~---|
E|-0-7-0-9-0-11-0-12-0-11-0----8--------|----|-9--------7------7~---|

Verse 2:
e|-------|----|--------|-------------------|
B|-------|----|--------|-------------------|
G|-------|----|-7-7----|--11~--------------|
D|-7-77--|-x3-|-7-7-7~-|--11~---7------9~--|
A|-7-77--|----|-5-5-7~-|---9~---7-(x4)-9~--|
E|-5-55--|----|-----5~-|--------5------7~--|
"If we knew the truth..."-^

Chorus 2:
e|-------------------------|
B|-------------------------|
G|------9--4--7----10------|
D|---7-9--4--7-7~--10-(x4)-|
A|--7-7--2--5--7~---8------|
E|-5-----------5~----------|

----replay Chorus-----------------------------------------------|
e|---------------------------------------------|----|-----------|
B|---------------------------------------------|----|-----------|
G|--------9------4------7-------------10-------|----|-----------|
D|-7------7-(x4)-4-(x4)-7-(x4)-7------10-(x4)--|-x3-|-9---------|
A|-5-(x4)-7------2------5------7-(x4)--8-------|----|-9-(x16)---|
E|-5---------------------------5---------------|----|-7---------|
                                "Learn to swim..."---^

Outro:
e|------------------------------|----|---------|
B|------------------------------|----|---------|
G|-9------6---------------------|----|---------|
D|-9-(x4)-6-(x4)-10------7------|-x3-|-9-------|
A|-7------4------10-(x4)-7-(x4)-|----|-9-(x16)-|
E|----------------8------5------|----|-7-------|
                 "Learn to swim..."---^

----replay outro---------------------------------|
e|------------------------------|----|-----------|
B|------------------------------|----|-----------|
G|-9------6---------------------|----|-----------|
D|-9-(x4)-6-(x4)-10------7------|-x3-|-9~--7~----|
A|-7------4------10-(x4)-7-(x4)-|----|-7~--5~----|
E|----------------8------5------|----|-7~--5~----|
                   "Grant us grace..." ^

---replay intro--------------------------------------------------|
e|--------------------------------------|----|-------------------|
B|--------------------------------------|----|-------------------|
G|--------------------------------------|----|-------------------|
D|----------------------------10--------|-x2-|-11-------9--------|
A|----------------------------10-(x4)---|----|-11-(x4)--9-(x4)---|
E|0-0-7-0-9-0-11-0-12-0-11-0--8---------|----|-9--------7--------|

e|--------------------------------------|----|-----------------|----||
B|--------------------------------------|----|-----------------|----||
G|--------------------------------------|----|-----------------|-9~-||
D|----------------------------10--------|-x3-|-11-------9------|-7~-||
A|----------------------------10-(x4)---|----|-11-(x4)--9-(x4)-|-7~-||
E|0-0-7-0-9-0-11-0-12-0-11-0--8---------|----|-9--------7------|----||

                              END
Suggest correction
Give kudos to tab author, rate the tab!
1 2 3 4 5
comments
print report bad tab
guest
You may want to rate the tab now too:
select rating
Please do not post tabs as comments. Select "correction" instead!