Oops, an error
Loading. Please wait.

Elevator Bass Tab

2,068 views 6 this week
no commentswrite comment
1 2 3 4 5
please rate
add to favorites
launch autoscroll
font size
0
reset
guitar tuner
Autoscroll
slow
fast
+/-
esc
set tempo
stop
Help us to improve Ultimate-Guitar.com Take our survey!
×
Author
-------------------------------------------------------------------------------
			     Elevator - House of Heroes
-------------------------------------------------------------------------------

Tabbed By : Itan95
e-mail: tribalwarer@gmail.com

Tuning: Standard
Pre Chorus 0:00-0:13                                                       2X
G|--------------------------------------------------------------------------|
D|--------------------------------------------------------------------------|
A|--------------------------------------------------------------------------|
E|--555-03503-555-03503-555-03503-5-5-7777----------------------------------|

Chorus 0:13-0:29  This Elavator...                  2nd time               2X
G|--------------------------------------------------|-----------------------|
D|--------------------------------------------------|-----------------------|
A|--------------------------------------------------|-5557777---------------|
E|--555-03503-555-03503-555-03503-5-5-7777----------|-----------------------|

 0:29-0:39   I wanna know, what you know, when you know         
G|--------------------------------------------------------------------------|
D|--------------------------------------------------------------------------|
A|-----------------5555-555-555-55------------------------------------------|
E|-5555-555-555-55-----------------1111-11-3333-33--------------------------|
 0:39-0:45
G|--------------------------------------------------------------------------|
D|------567-------567-------567---------------------------------------------|
A|---457-------457-------457------3p-3p-2p-2p-------------------------------|
E|-55--------55--------55---------------------------------------------------|
  0:45-1:01      This Elavator....
G|--------------------------------------------------------------------------|
D|--------------------------------------------------------------------------|
A|--------------------55-7777---------------------------55-7777-555-7777----|
E|--555\0-555\0-555\0---------555555-555555-555-03503-----------------------|
 
  1:01-1:21 I wanna know, what you know, when you know                     2X
G|--------------------------------------------------------------------------|
D|--------------------------------------------------------------------------|
A|-----------------5555-555-555-55------------------------------------------|
E|-5555-555-555-55-----------------1111-11-3333-33--------------------------|
1:21-1:38                     1st time        2nd time                     2X
G|----------------------------------|------------|--------------------------|
D|-------567---------567-------567--|------------|--------------------------|
A|---457----------457-------457-----|3p-3p-2p-2p-|--------------------------|
E|-55-----------55--------55--------|------------|-5-5-5-5-5r---------------|
  2:03-2:15
G|--------------------------------------------------------------------------|
D|--------------------------------------------------------------------------|
A|--------------------------------3p-3p-2p-2p-------------------------------|
E|-55-012345-55-012345-55-012345---------------55-012345-55-012345-55-012345|
    2:16-2:20 everybody's talkin bout it why don't we shout about it.
G|--------------------------------------------------------------------------|
D|--------7r----------------------------------------------------------------|
A|--------------------------------------------------------------------------|
E|--5r----------------------------------------------------------------------|
     2:20-2:41 i wanna know what you know when you know......              2X
G|--------------------------------------------------------------------------|
D|--------------------------------------------------------------------------|
A|-----------------5555-555-555-55------------------------------------------|
E|-5555-555-555-55-----------------1111-11-3333-33--------------------------|
     2:41-2:48 this elevators going straight towards the top of the line.
G|--------------------------------------------------------------------------|
D|--------------------------------------------------------------------------|
A|--------3333----------------3333---------------------7--------------------|
E|---5555------1111-3333-5555------1111-3333------5-------------------------|

G|---------------------------------------------------------------------------|
D|---------------------------------------------------------------------------|
A|---------------------------------------------------------------------------|
E|---------------------------------------------------------------------------|

| r  Let ring
| /  slide up
| \  slide down
| h  hammer-on
| p  pull-off
| ~  vibrato
| +  harmonic
| x  Mute note
===============================================================================
Suggest correction
Give kudos to tab author, rate the tab!
1 2 3 4 5
comments
print report bad tab
guest
You may want to rate the tab now too:
select rating
Please do not post tabs as comments. Select "correction" instead!