Oops, an error
Loading. Please wait.

God Save The Foolish Kings Tab

4,560 views 3 this week
3 commentsread comments
1 2 3 4 5
excellent!
x 3
add to favorites
launch autoscroll
font size
0
reset
how to read this tab
guitar tuner
Tab Pro tools
  • play this tab
  • loop segment
  • change instrument
  • show fretboard
  • metronome
Autoscroll
slow
fast
+/-
esc
set tempo
stop
Difficulty
intermediate
----------------------------------------------------------------------------
		                   GOD SAVE THE FOOLISH KINGS - House of Heroes
----------------------------------------------------------------------------

Tabbed by: Melody

Tuning: Standard EADGBE

E
|-----------0-|
|---------0---|
|-------1-----|
|-----2-------|
|---2---------|
|-0-----------|

|------------------------------------------------|
|------------------------------------------------|
|------------------------------------------------|
|------------------------------------------------|
|-9h11-11-11-11-11-11-11--9h11-11-11-11-11-11-11-|
|-0--0--0--0--0--0--0--0--0--0--0--0--0--0--0--0-|
  x  x  x  x  x  x  x  x  x  x  x  x  x  x  x  x

|-------------------------------------------------|
|-------------------------------------------------|
|-------------------------------------------------|
|-------------------------------------------------|
|-11-11-11-11-11-11-11-11-11-11-11-11-11-11-11-11-|
|-9--9--9--9--9--9--9--9--9--9--9--9--9--9--9--9--|
  x  x  x  x  x  x  x  x  x  x  x  x  x  x  x  x

|------------------------------------------------|
|------------------------------------------------|
|------------------------------------------------|
|------------------------------------------------|
|-9h11-11-11-11-11-11-11--9h11-11-11-11-11-11-11-|
|-0--0--0--0--0--0--0--0--0--0--0--0--0--0--0--0-|
  x  x  x  x  x  x  x  x  x  x  x  x  x  x  x  x

					                            C# G# C# B 		
|-------------------------|-x--x--x--x--|
|-------------------------|-x--x--x--x--|
|-------------------------|-6--x--6--4--|
|-------------------------|-6--6--6--4--|
|-11-11-11-11-11-11-11-11-|-4--6--4--2--|
|-9--9--9--9--9--9--9--9--|-x--4--x--x--|
  x  x  x  x  x  x  x  x

  A      F#m    E       E/D#   E        C# G# C# B
|-x------x------x-------x------x------|-x--x--x--x--|
|-x------x------x-------x------x------|-x--x--x--x--|
|-6------11-----9-------x------9------|-6--x--6--4--|
|-7------11-----9-------9------9------|-6--6--6--4--|
|-7--x8--9--x8--7--x12--6--x4--7--x8--|-4--6--4--2--|
|-5------x------x-------x------x------|-x--4--x--x--|

CHORUS & SOLO
(guitar 1)
E x16	C#m x16	
E x16	C#m x16	
E x8		F#m x8	E x16

(guitar 2)
|------------------------------------------------|
|-9-9-9-9-9-9-9-9-9-9-9-9------9-9-9-9-9---------|
|-------------------------11-9----------11-9-----|
|---------------------------------------------11-|
|------------------------------------------------|
|------------------------------------------------|

|------9-----------9b-9b-9b-9b-9b------9---------------|
|-9-12---12-9-9-12----------------9-12---12-9-9-12-9---|
|----------------------------------------------------9-|
|------------------------------------------------------|
|------------------------------------------------------|
|------------------------------------------------------|

|-13b14-12--15b16r15b16-|
|-----------------------|
|-----------------------|
|-----------------------|
|-----------------------|
|-----------------------|

'Promise me...'
A x16
E x16
A x16
B x16

'We're outcasts...'
G#m x8
A   x8
E   x16
G#m x8
A   x8
E   x8
B   x8
G#m x8
A   x8
E   x4
B   x4
C#m x8
A   x8
F#m x8
E   x16

'Midnight, at the school...'
|------------------------------------------------|
|------------------------------------------------|
|------------------------------------------------|
|------------------------------------------------|
|-9h11-11-11-11-11-11-11--9h11-11-11-11-11-11-11-|
|-0--0--0--0--0--0--0--0--0--0--0--0--0--0--0--0-|
  x  x  x  x  x  x  x  x  x  x  x  x  x  x  x  x

|-------------------------------------------------|
|-------------------------------------------------|
|-------------------------------------------------|
|-------------------------------------------------|
|-11-11-11-11-11-11-11-11-11-11-11-11-11-11-11-11-|
|-9--9--9--9--9--9--9--9--9--9--9--9--9--9--9--9--|
  x  x  x  x  x  x  x  x  x  x  x  x  x  x  x  x

|------------------------------------------------|
|------------------------------------------------|
|------------------------------------------------|
|------------------------------------------------|
|-9h11-11-11-11-11-11-11--9h11-11-11-11-11-11-11-|
|-0--0--0--0--0--0--0--0--0--0--0--0--0--0--0--0-|
  x  x  x  x  x  x  x  x  x  x  x  x  x  x  x  x

|-------------------------------------------------|
|-------------------------------------------------|
|-------------------------------------------------|
|-------------------------------------------------|
|-11-11-11-11-11-11-11-11-11-11-11-11-11-11-11-11-|
|-9--9--9--9--9--9--9--9--9--9--9--9--9--9--9--9--|
  x  x  x  x  x  x  x  x  x  x  x  x  x  x  x  x

A   x8
F#m x8
E   x8
B   x8
E   x16

'We're Daring...'
G#m x8
A   x8
E   x16
G#m x8
A   x8
E   x8
B   x8 
G#m x8
A   x8
E   x4
B   x4
C#m x8
A   x8
F#m x8
E   x16
A   x8
F#m x8
E   x16

'Whoa-oh-oh-oh-oh-oh-oh'
A   x16
B   x16
C#m x16
E/D#x16
E			B		A

Interlude
F#m			E		B
F#m			E		B

(slide guitar)
|------------------------|
|------------------------|
|-6/14-13\8-6/14-13\8/16-|
|------------------------|
|------------------------|
|------------------------|

'But I met God...'
A    F#m	B	G#m	
C#m	C#m	A	B	

'Promise me you won't do anything crazy'
A   x8
B   x8
C#m x8
B   x8
A   x16
B   x16

'Whoa-oh-oh'
A		B		E

'We're Devils...'
G#m x8
A   x8
E   x16
G#m x8
A   x8
E   x8
B   x8 
G#m x8
A   x8
E   x4
B   x4
C#m x8
A   x8
F#m x8
E   x16
A   x8
F#m x8
E   x16

A   x16
F#m x16
E	A  E	 B  E  A  E


************************************

| /   slide up
| \   slide down
| h   hammer-on
| p   pull-off
| ~   vibrato
| +   harmonic
| x   Mute note
| b   Bend
| pb  Pre-bend
| br  Bend release
| pbr Pre-bend release
| brb Bend release bend

************************************
comments
We did not receive enough feedback on this tab! Please rate:
print report bad tab
1 2 3 4 5
3 comments total.
0 reply
strat-rocker-06 wrote on December 22 2010, 04:00 pm

Spot on, though the whole chord diagram things is kind of a pain, having to scroll up all the time to figure out what you're supposed to be playing.

0 reply
LD1 wrote on April 20 2013, 01:44 am

AWESOME!!! THIS TAB IS PERFECT!!! accept for the|-9h11-11-11-11-11-11-11- . |-0--0--0--0--0--0--0--0-
part... I'm pretty shore he plays something different... or at least in a different timing. but this tab is still AWESOME!!!! and your riff would be a great alternate.

0 reply
LD1 wrote on April 20 2013, 01:53 am

I think he is playing


x x
x x
9 x16 x x16
9 11
7 11
x 9

I want to post or [tab]
guest
You may want to rate the tab now too:
select rating
Please do not post tabs as comments. Select "correction" instead!