Oops, an error
Loading. Please wait.

In The Valley Of The Dying Sun Bass Tab

3,168 views 1 this week
no commentswrite comment
1 2 3 4 5
accurate
x 5
add to favorites
launch autoscroll
font size
0
reset
guitar tuner
Tab Pro tools
  • play this tab
  • loop segment
  • change instrument
  • show fretboard
  • metronome
Autoscroll
slow
fast
+/-
esc
set tempo
stop
Contributor
----------------------------------------------------------------------------
	     In The Valley Of The Dying Sun - House Of Heroes
----------------------------------------------------------------------------

Tabbed By : Liza

Tuning: Standard


                   Verse


G|-----------------------------------------------------------------------
D|-4-4-4-4-3-4-6-7-7-7-7-6-4-3-4-4-4-4-3-4-6-7-7-7-7-6-5-4-3-3-3-3-4-5-6-
A|--4-4-4---------7-7-7---------4-4-4---------7-7-7---------3-3-3--------
E|-----------------------------------------------------------------------




G|-------------------------------------|
D|-7-7-7-7-6-5-4-3-3-3-3-4-5-6-7-7-7-7-|
A|--7-7-7---------3-3-3---------7-7-7--|
E|-------------------------------------|

                Chorus
                 I'm thinking of you....

G|---------------------------------------------|
D|-9-9-9-9-9-9-7-7-------------7-7-9-9-9-9-9-9-|    x4
A|-----------------7-7-7-7-7-7-----------------|
E|---------------------------------------------|


               Bridge


G|-----------------------------------------------------------------|
D|------------------------2-------------------------------2--------|
A|--------------------2-4---4-2-0---------------------2-4---4-2-0--|
E|--2-0-2-0-2-0-2-0-2-------------0-2-0-2-0-2-0-2-0-2--------------|


                       And Then verse 2
                          is like verse 1

G|---------------------------------------------------|
D|---------------------------------------------------|
A|------------2--2----------4--4-5-4-----------------|
E|-2---5-5---2----5--2-5-2----------5----------------|


              All through the night....


G|---------------------------------------------------|
D|---------------------------------------------------|
A|-5----7----9----7----5----4----2----0--------------|
E|-----------------------------------------0---------|


         And for the first time I could see....
            This Part Is Like The Chorus But We Play It



G|---16-16-16-16-16-16-14-14-9-9-9-9-9-9-14-14-|
D|---------------------------------------------|     x4
A|-14-14-14-14-14-14-12-12-7-7-7-7-7-7-12-12---|
E|---------------------------------------------|

G|----------------------------------------------------------------------|
D|----------------------------------------------------------------------|
A|-12-14-12-14-14-12-14-12-14-14-14-12-11-12-11-11-12-11-12-11-11-11-11-|
E|----------------------------------------------------------------------|



                   Like pices of the sun....
                        that part is like the verse





comments
print report bad tab
I want to post or [tab]
guest
You may want to rate the tab now too:
select rating
Please do not post tabs as comments. Select "correction" instead!