Oops, an error
Loading. Please wait.

In The Valley Of The Dying Sun Tab

version 2
version 2

Whole song

800 views 1 this week
no commentswrite comment
1 2 3 4 5
accurate
x 4
add to favorites
launch autoscroll
font size
0
reset
how to read this tab
guitar tuner
Tab Pro tools
  • play this tab
  • loop segment
  • change instrument
  • show fretboard
  • metronome
×
Best way to learn
"In The Valley Of The Dying Sun"
Autoscroll
slow
fast
+/-
esc
set tempo
stop
Contributor
SONG-In The Valley Of The Dying Sun
BAND-House of Heroes
ALBUM-The End Is Not The End

tabbed by: linds4lif
email- ruic707@yahoo.com

Tuning: Guitar1-standard-clean (Tim)
               Guitar2-standard-distortion (Jared)

Just a comment, umm the chords I use are right but some of the chords they use different
fingerings/variations of the same chords, I learned it like this by ear and tabbed it
then saw a few youtube videos of this song live and saw this, you can do whichever it
really makes no difference! Enjoy.

***Also the chords are not staying where I put them above their respective fingerings
and I don't know why they are spacing out like that, I tried fixing them but it did nothing***

INTRO
(0:00)
Guitar 1
   F#m        Fm       F#m
E|--9---------8--------9/------------------|
B|--10--------9-------10/------------------|
G|--11-------10-------11/------------------|
D|--11-(x13)--10-(x3)-11/-(x14)------------|
A|--9---------8--------9/------------------|
E|-----------------------------------------|

(0:02)
Guitar2 (Comes in after G1 starts playing intro)
           Fm         F#m
E|-----------8---------9/----------------|
B|-----------9--------10/----------------|
G|----------10--------11/----------------|
D|----------10--(x3)---11/-(x14)---------|
A|-----------8---------9/----------------|
E|---------------------------------------|

VERSE 1
(0:06)
Both Guitars
   F#m          A                      F#m       A
E|--9-----------9---------9--9--9--9----9--------9--------5/4/3/2/-------------|
B|--10----------10--------12-10-12-10--10-------10--------5/4/3/2/-------------|
G|--11----------9---------9--9--9--9---11--------9--------6/5/4/3/-------------|
D|--11--(x16)---11--(x12)-11-11-11-11--11-(x16)-11--(x12)-7/6/5/4/-------------|
A|--9-----------x---------x--x--x--x----9--------x--------7/6/5/4/-------------|
E|--------------x---------x--x--x--x-------------x--------5/4/3/2/-------------|

   F                 A                F                A
E|-1--------/2/3/4/--5-------/4/3/2/--1-------/2/3/4/--5--------------------|
B|-1--------/2/3/4/--5-------/4/3/2/--1-------/2/3/4/--5--------------------|
G|-2--------/3/4/5/--6-------/5/4/3/--2-------/3/4/5/--6--------------------|
D|-3-(x13)--/4/5/6/--7-(x13)-/6/5/4/--3-(x13)-/4/5/6/--7-(x13)--------------|
A|-3--------/4/5/6/--7-------/6/5/4/--3-------/4/5/6/--7--------------------|
E|-1--------/2/3/4/--5-------/4/3/2/--1-------/2/3/4/--5--------------------|

CHORUS
(0:32)

Guitar 1
 (Side note: They use the chords Bm-A-E-A etc for this part they use different chord
variations live but I prefer to use these variations/fingerings)

Repeat 3x
      Bm                         A         E                          A
E|------------------------------------------------------------------------|
B|------3--------3-------3--------2--------0--------0--------0--------2---|
G|--------4--------4-------4--------2--------1--------1--------1--------2-|
D|----4--------4-------4--------2--------2--------2--------2--------2-----|
A|--2--------2-------2--------0--------2--------2--------2--------0-------|
E|------------------------------------------------------------------------|
 Repeat  1x
     Bm                          A          E
E|------------------------------------------------------------------------|
B|------3--------3-------3--------2--------0--------0--------0--------0---|
G|--------4--------4-------4--------2--------1--------1--------1--------1-|
D|----4--------4-------4--------2--------2--------2--------2--------2-----|
A|--2--------2-------2--------0--------2--------2--------2--------2-------|
E|------------------------------------------------------------------------|

(0:46)
Guitar 2
   Bm    Bm A E   E A Bm   Bm A E  E
e|--2~---2-0-0~---0-0-2~---2-0-0~--0--|
B|--3~---3-2-0~---0-2-3~---3-2-0~--0--|
G|--4~---4-2-1~---1-2-4~---4-2-1~--1--|
D|--4~---4-2-2~---2-2-4~---4-2-2~--2--|
A|--2~---2-0-2~---2-0-2~---2-0-2~--2--|
E|------------------------------------|


POST-CHORUS 1
(0:58)
Guitar1
E|------------------------------------------------------------------|
B|------------------------------------------------------------------|
G|------------------------9---------------------------------9-------|
D|--------------------9-11-11-9-------------------------9-11-11-9---|
A|------------------------------12-------------------------------12-|
E|--2-0-2-0-2-0-2-0-2---------------0-2-0-2-0-2-0-2-0-2-------------|

Guitar2
E|-----------------------------------------------------------------|
B|-----------------------------------------------------------------|
G|-----------------------------------------------------------------|
D|------------------------2-------------------------------2--------|
A|--------------------2-4---4-2-0---------------------2-4---4-2-0--|
E|--2-0-2-0-2-0-2-0-2-------------0-2-0-2-0-2-0-2-0-2--------------|


Verse 2 (Cd version I don't know what is going on sounds like keyboards/synths so I
didn't tab it)
(1:06)
e|-------------------------------------------------------|
B|-------------------------------------------------------|
G|-------------------------------------------------------|
D|-------------------------------------------------------|
A|-------------------------------------------------------|
E|-------------------------------------------------------|


Chorus2
(1:32)
Guitar 1
Repeat 3x
 
      Bm                         A         E                          A
E|------------------------------------------------------------------------|
B|------3--------3-------3--------2--------0--------0--------0--------2---|
G|--------4--------4-------4--------2--------1--------1--------1--------2-|
D|----4--------4-------4--------2--------2--------2--------2--------2-----|
A|--2--------2-------2--------0--------2--------2--------2--------0-------|
E|------------------------------------------------------------------------|

Repeat 1x
     Bm                          A          E
E|------------------------------------------------------------------------|
B|------3--------3-------3--------2--------0--------0--------0--------0---|
G|--------4--------4-------4--------2--------1--------1--------1--------1-|
D|----4--------4-------4--------2--------2--------2--------2--------2-----|
A|--2--------2-------2--------0--------2--------2--------2--------2-------|
E|------------------------------------------------------------------------|

(1:45)
Guitar 2
   Bm    Bm A E   E A Bm   Bm A E  E
e|--2~---2-0-0~---0-0-2~---2-0-0~--0--|
B|--3~---3-2-0~---0-2-3~---3-2-0~--0--|
G|--4~---4-2-1~---1-2-4~---4-2-1~--1--|
D|--4~---4-2-2~---2-2-4~---4-2-2~--2--|
A|--2~---2-0-2~---2-0-2~---2-0-2~--2--|
E|------------------------------------|

Post-Chorus 2
(1:58)
Guitar2
E|------------------------------------------------------------------------|
B|------------------------------------------------------------------------|
G|------------------------------------------------------------------------|
D|--------------------------------2------------------------------2--------|
A|----------------------------2-4---4-2-0---------------------2-4---4-2-0-|
E|--2p1p0-2p1p0-2p1p0-2p1p0-2-------------0-2-0-2-0-2-0-2-0-2-------------|

(2:04)  First part is slightly different than above, listen to song)
Guitar1
E|-------------------------------------------------------------------|
B|-------------------------------------------------------------------|
G|-------------------------9---------------------------------9-------|
D|---------------------9-11-11-9-------------------------9-11-11-9---|
A|-------------------------------12-------------------------------12-|
E|--0-2--0-2--0-2--0-2---------------0-2-0-2-0-2-0-2-0-2-------------|

Guitar2
E|------------------------------------------------------------------|
B|------------------------------------------------------------------|
G|------------------------------------------------------------------|
D|-------------------------2-------------------------------2--------|
A|---------------------2-4---4-2-0---------------------2-4---4-2-0--|
E|--0-2--0-2--0-2--0-2-------------0-2-0-2-0-2-0-2-0-2--------------|

(2:11)
Both Guitars
e|----------------------------------|
B|----------------------------------|
G|----------------------------------| Repeat 3x
D|-------------------2---2-4-2~-----|
A|---------0-2-0-2-4---4------------|
E|---2-0-2--------------------------|
PM   . . . . . . . . . . . .

e|-------------------------------------|
B|-------------------------------------|
G|-------------------------------------| Gradually go slower
D|-------------------2---2-4-2~-1~-0~--|
A|---------0-2-0-2-4---4---------------|
E|---2-0-2-----------------------------|

(2:32)
Both Guitars
e|---------------------2b3r2-------------------------|
B|---------3-----2-------------------3-----2---------|
G|---2-------------------------2---------------------|
D|---------------------------------------------------|
A|-------2---2-0---0-4-------------2---2-0---0-4xxxx-|
E|-2---2---------------------2---2-------------------|

e|------------------------------------------------2b3r2/3/4-5-4-2-0------------|
B|---------3-----2--------------------3-----2-----------------------3-2-0------|
G|---2*-----------------------2-----------------------------------------1------|
D|-----------------------------------------------------------------------------|
A|-------2---2-0---0-4//------------2---2-0---0-4------------------------------|
E|-2---2--------------------2---2----------------------------------------------|

(3:16)
Guitar 1 (...For the first time I could see...)
                                                   *Repeat the Part in brackets 3x*
e|-----------[-------------------------------------------------]-----|
B|-----------[-------------------------------------------------]-----|
G|-----4---4-[---4---4---4---4---2---2---1---1---1---1---2---2-]-----|
D|---4---4---[-4---4---4---4---2---2---2---2---2---2---2---2---]-----|
A|-------------------------------------------------------------------|
E|-------------------------------------------------------------------|

CHORUS3
 (3:29)
Guitar 2 strum Chords and let ring (I'm thinking of you...)
   Bm    Bm A E   E A Bm   Bm A E  E
e|--2~---2-0-0~---0-0-2~---2-0-0~--0--|
B|--3~---3-2-0~---0-2-3~---3-2-0~--0--|
G|--4~---4-2-1~---1-2-4~---4-2-1~--1--|
D|--4~---4-2-2~---2-2-4~---4-2-2~--2--|
A|--2~---2-0-2~---2-0-2~---2-0-2~--2--|
E|------------------------------------|

Both Guitars (3:42)
e|-----------------------------------------------------------------------|
B|-----------------------------------------------------------------------|
G|-24-24-4-24-24222-2--2----2--2--222-24-24-4-24-24222-2--2----2--2--222-|
D|-24-24-4-24-24222-22-22-2-22-22-222-24-24-4-24-24222-22-22-2-22-22-222-|
A|-02-02-2-02-02000-02-02-2-02-02-000-02-02-2-02-02000-02-02-2-02-02-000-|
E|-------------------0--0-0--0--0-----------------------0--0-0--0--0-----|

e|-------------------|
B|-------------------|
G|-2--2----2--2------|
D|-22-22-2-22-22-2---|
A|-02-02-2-02-02-2---|
E|--0--0-0--0--0-0---|

OUTRO
(3:58-END)

Guitar 1
e|----------------------------|
B|----------------------------|
G|-----------------------1-2~~|
D|--------3-------34~~434-----|
A|--4~~4-4--4~~4-4------------|
E|------6-------6-------------|

e|---------------------------------|
B|-2b-2------------2b-2-------2b^^-| Repeat x2
G|------4-2-4-2b^/------4-2-4------|
D|---------------------------------|
A|---------------------------------|
E|---------------------------------|

e|-------------------------------------------------|
B|-2b-2-------2b^^-[Repeat x3]--2b-2---------------|
G|------4-2-4-----------------------4-2///---------|
D|-------------------------------------------------|
A|-------------------------------------------------|
E|-------------------------------------------------|

Guitar 2...
is playing chords from the verse listen to the song to hear what chords, I will probably
update another time and list them, just too lazy/tired right now.

Well that's all, pretty fun to play!

************************************

| /   slide up
| \   slide down
| h   hammer-on
| p   pull-off
| ~   vibrato
| +   harmonic
| x   Mute note
| b   Bend
| pb  Pre-bend
| br  Bend release
| pbr Pre-bend release
| brb Bend release bend

************************************
comments
print report bad tab
I want to post or [tab]
guest
You may want to rate the tab now too:
select rating
Please do not post tabs as comments. Select "correction" instead!