Oops, an error
Loading. Please wait.

Independence Day For A Petty Thief Tab

version 1
version 1

Whole song

1,223 views 1 this week
no commentswrite comment
1 2 3 4 5
excellent!
x 3
add to favorites
launch autoscroll
font size
0
reset
how to read this tab
guitar tuner
Tab Pro tools
  • play this tab
  • loop segment
  • change instrument
  • show fretboard
  • metronome
×
Best way to learn
"Independence Day For A Petty Thief"
Autoscroll
slow
fast
+/-
esc
set tempo
stop
Contributor
************************************

| /   slide up
| \   slide down
| h   hammer-on
| p   pull-off
| ~   vibrato
| +   harmonic
| x   Mute note
| b   Bend
| pb  Pre-bend
| br  Bend release
| pbr Pre-bend release
| brb Bend release bend

************************************

Intro
e|---------------------------x-x-x-x-x-x-----|    e|---x-x-x-x-|
B|---------------------------x-x-x-x-x-x-----|    B|---x-x-x-x-|
G|---------------------------x-x-x-x-x-x-----| 2x G|---x-x-x-x-|
D|-2-----------------------2-x-x-x-x-x-x-2-2-|    D|-2-x-x-x-x-|
A|-2-----------------------2-x-x-x-x-x-x-2-2-|    A|-2-x-x-x-x-|
E|-0-0-10-12-0-5-7-0-3-5-0-0-x-x-x-x-x-x-0-0-|    E|-0-x-x-x-x-|

Verse 1 - mainly bass until
e|------|
B|------|
G|------|
D|-9--7-|
A|-9--7-|
E|-7--5-|

then
e|--------------------------------------------|
B|--------------------------------------------|
G|-------7h9-7h10-11~-------5h7-5h8-9-7-5-4p2-|
D|---7h9----------------5h7-------------------|
A|-9------------------7-----------------------|
E|--------------------------------------------|

Pre-Chorus
e|-------------------x-x-x-x-|
B|-------------------x-x-x-x-|
G|-------------------x-x-x-x-|
D|-2-----------------x-x-x-x-|
A|-2-----------------x-x-x-x-|
E|-0-0-10-12-0-5-7-0-x-x-x-x-|

Chorus 1
e|--------------------------------------------------------------|
B|--------------------------------------------------------------|
G|--------------------------------------------------------------|
D|--------------------------------------------------------------|
A|-------2-2-2-2-2------2-5-5-5-5-5-----------------------5-6-7-|
E|-3-0-3-----------3-0--------------3-0-5-7-7-7-7-7-0-3-0-------|

e|-------------------------------------------------|
B|-------------------------------------------------|
G|-------------------------------------------------|
D|-------------------------------------------------|
A|-------2-2-2-2-2-----2-5-5-5-5-5-----------------|
E|-3-0-3-----------3-0-------------3-0-5-7-7-7-7-7-|

Post-Chorus 1
e|-------------------------|    e|-------------------|
B|-------------------------|    B|-------------------|
G|-------------------------| x3 G|-------------------|
D|-2-----------------------|    D|-2-x-x-x-x-x-x-2-2-|
A|-2-----------------------|    A|-2-x-x-x-x-x-x-2-2-|
E|-0-0-10-12-0-5-7-0-3-5-0-|    E|-0-x-x-x-x-x-x-0-0-|

Verse 2 - mainly bass until
e|----------------------------------|
B|----------------------------------|
G|----------------------------------|
D|-2--------------------------------|
A|-2--7~-10-12~-12h14p12-10-7~-5----|
E|-0-----------------------------5~-|

e|-7~---5~-|
B|-7~---5~-|
G|-7~---5~-|
D|-9~---7~-|
A|-9~---7~-|
E|-7~---5~-|

Pre-Chorus x1


Chorus 2
e|--------------------------------------------------|-7-5-3-------|
B|--------------------------------------------------|-------3-4-5-| Play top
G|--------------------------------------------------|-------------|    or
D|--------------------------------------------------|-------------|  bottom
A|-------2-2-2-2-2------2-5-5-5-5-5-----------------|-------5-6-7-|
E|-3-0-3-----------3-0--------------3-0-5-7-7-7-7-7-|-0-3-0-------|


e|-------------------------------------------------|
B|-------------------------------------------------|
G|-------------------------------------------------|
D|-------------------------------------------------|
A|-------2-2-2-2-2-----2-5-5-5-5-5-----------------|
E|-3-0-3-----------3-0-------------3-0-5-7-7-7-7-7-|

Post Chorus 2
e|-------------------------------------------|
B|-------------------------------------------|
G|-------------------------------------------|
D|-2-----------------------2-x-x-x-x-x-x-2-2-|
A|-2-----------------------2-x-x-x-x-x-x-2-2-|
E|-0-0-10-12-0-5-7-0-3-5-0-0-x-x-x-x-x-x-0-0-|

Don't have the solo but this is the riff right after the solo
e|-----------------------------------|
B|-----------------------------------|
G|-----------------------------------|
D|-----------------------------------|
A|-------------5-6-7-----------5-6-7-|
E|-0-3-4-5-6-7-------0-3-5-6-7-------|

Chorus 2 x1

Ending
e|-------------------------|    e|-----------|
B|-------------------------|    B|-----------|
G|-------------------------| x3 G|-----------|
D|-2-----------------------|    D|-2---2-2-2-|
A|-2-----------------------|    A|-2---2-2-2-|
E|-0-0-10-12-0-5-7-0-3-5-0-|    E|-0---0-0-0-|
comments
We did not receive enough feedback on this tab! Please rate:
print report bad tab
1 2 3 4 5
I want to post or [tab]
guest
You may want to rate the tab now too:
select rating
Please do not post tabs as comments. Select "correction" instead!