Oops, an error
Loading. Please wait.

Invisible Hook Bass Tab

637 views 1 this week
1 commentread comment
1 2 3 4 5
please rate
add to favorites
launch autoscroll
font size
0
reset
guitar tuner
Autoscroll
slow
fast
+/-
esc
set tempo
stop
Help us to improve Ultimate-Guitar.com Take our survey!
×
Author
Difficulty
intermediate
Intro
This part is right after the second line. you can hear it if you lstn.
|----------------------------|
|----------------------------|
|----//12~~------------------|
|----------------------------|

Verse
|-----------------------------------------|
|-----------------------------------------|
|--0-7-0-5-3-00000000--0-7-0-5-3-0-33~----|
|-----------------------------------------|2x

|------------------------------------------|
|----------------5757----------------------|
|--0-7-0-5-3-0--0-----0-7-0-5-3-0-3-03030--|
|------------------------------------------|

|------------------------------------------|
|----------------5757----------------------|
|--0-7-0-5-3-0--0-----0-7-0-5-3-0-3333333--|
|------------------------------------------|

Chorus
|----------------------------------------------|
|----------------------------------------------|
|-5(15x)------------3---5(15x)------------353--|
|--------35-35-35-35-53--------35-35-35-35-----|

|-------------------------------------------------|
|-------------------------------------------------|
|-5(16x)-88888-10-11-12--1212-11--88888-10-11-12--|
|-------------------------------------------------|

Verse
|-------------------------------------------|
|-------------------------------------------|
|--0-7-0-5-3-00000000--0-7-0-5-3-0-3-03030--|

|--------------------------------------------|
|----------------5757------------------------|
|--0-7-0-5-3-0--0-----0-7-0-5-3-0--3b-0-3-0--|
|--------------------------------------------|

|------------------------------------------|
|----------------5757----------------------|
|--0-7-0-5-3-0--0-----0-7-0-5-3-0-3-03030--|
|------------------------------------------|

|------------------------------------------|
|----------------5757----------------------|
|--0-7-0-5-3-0--0-----0-7-0-5-3-0-3333333--|
|------------------------------------------|

|Chorus
|----------------------------------------------|
|----------------------------------------------|
|-5(15x)------------3---5(15x)------------353--|
|--------35-35-35-35-53--------35-35-35-35-----|

|-------------------------------------------------|
|-------------------------------------------------|
|-5(16x)-88888-10-11-12--1212-11--88888-10-11-12--|
|-------------------------------------------------|

Chorus Part 2
|------------------------------------|
|------------------------------------|
|------------------------------------|
|--35~--35~--35~--35~-35~-3555xx555--|

Bridge
|------------------------------------|
|------------------------------------|
|--3(16x)-2(8x)-------5(16x)-0(16x)--|
|---------------3(8x)----------------|
The first time this played it's palm muted. the second time is open.

|----------------------|
|----------------------|
|--0-7-0-5-3-0~~-------|
|----------------------|

Chorus

Chorus part 2
|----------------------------------|
|----------------------------------|
|----------------------------------|
|-------35~--35~--35~-35~-35~-35~--|

|----------------------|
|----------------5757--|
|--0-7-0-5-3-0--0------|
|----------------------|5x

Outro
|------------------------------------|
|------------------------------------|
|--0-7-0-5-3--0-0-0-3--0-0-0-----00--|
|----------------------------3~~-----|
Suggest correction
What's this?
You can suggest a correction to this tab. Community and Mods will review your correction and vote to approve or reject it.
comments
We did not receive enough feedback on this tab! Please rate:
print report bad tab
1 2 3 4 5
1 comment total.
0 reply
Dental Boy 395 wrote on November 20 2007, 01:35 pm

nice.

guest
You may want to rate the tab now too:
select rating
Please do not post tabs as comments. Select "correction" instead!