Oops, an error
Loading. Please wait.

Leave You Now Tab

2,153 views 3 this week
2 commentsread comments
1 2 3 4 5
excellent!
x 2
add to favorites
launch autoscroll
font size
0
reset
how to read this tab
guitar tuner
Tab Pro tools
  • play this tab
  • loop segment
  • change instrument
  • show fretboard
  • metronome
Autoscroll
slow
fast
+/-
esc
set tempo
stop
Contributor
-------------------------------------------------------------------------------

                             House of Heroes - Leave You Now

-------------------------------------------------------------------------------

Tabbed by: maps.run





Tuning: Standard (EADGBE)

Verse
   F#          C# D#     C# D#
E|-----------------------------------|
B|-----------------------------------|
G|-11--11--11------------------------|
D|-11--11--11--11-13-13--11-13-13-13-|
A|-------------11-13-13--11-13-13-13-|
E|-----------------------------------|

Chorus
   F#          C# D#     C# D#
E|-----------------------------------|
B|-11--11--11------------------------|
G|-11--11--11--10-12-12--10-12-12-12-|
D|-11--11--11--11-13-13--11-13-13-13-|
A|-9---9---9---11-13-13--11-13-13-13-|
E|-------------9--11-11--9--11-11-11-|

Bridge
(clean)                          (distortion)
E|---------------------------------------------------------------|
B|---------------------------------------------------------------|
G|---------------------------------------------------------------|
D|-8------9------10------11------8~--8~--9~--9~--10~-10~-11~-11~-|
A|-8(16x)-9(16x)-10(16x)-11(16x)-8~--8~--9~--9~--10~-10~-11~-11~-|
E|-6------7------8-------9-------6~--6~--7~--7~--8~--8~---9~--9~-|

Solo F#--C#-D#--C#-D#
Anyone?!

Outro
E|-------------------------------------|
B|-------------------------------------|
G|-------------------------------------|
D|-------------------------------------|
A|-9--------------9-11-11b13b11-9------|
E|---9--9--10-11------------------11-9-|


/   slide up
\   slide down
~   let ring
b   bend
h   hammer-on
p   pull-off
+   scrape harmonics
*   palm mute
comments
We did not receive enough feedback on this tab! Please rate:
print report bad tab
1 2 3 4 5
2 comments total.
0 reply
xcowrnx wrote on April 28 2009, 07:47 pm

Try this for the intro and verse. Otherwise a pretty solid tab.

e|-----------------------------------------------|
B|-11-11-11-9--7-7-6-7-7-7-11-11-11-9--7-7-6-7-6-|
G|-11-11-11-10-8-8-6-8-8-8-11-11-11-10-8-8-6-8-6-|
D|-----------------------------------------------|
A|-----------------------------------------------|
E|-----------------------------------------------|

0 reply
nickjlunn wrote on October 20 2009, 09:57 am

i'm going to tab out this song soon...i'll put in the solo, check it out

I want to post or [tab]
guest
You may want to rate the tab now too:
select rating
Please do not post tabs as comments. Select "correction" instead!