Oops, an error
Loading. Please wait.

Lose Control Tab

version 1
version 1

Whole song

3,867 views 1 this week
3 commentsread comments
1 2 3 4 5
accurate
x 5
add to favorites
launch autoscroll
font size
0
reset
how to read this tab
guitar tuner
Tab Pro tools
  • play this tab
  • loop segment
  • change instrument
  • show fretboard
  • metronome
×
Best way to learn
"Lose Control"
Autoscroll
slow
fast
+/-
esc
set tempo
stop
Contributor
-------------------------------------------------------------------------------

                             House of Heroes - Lose Control

-------------------------------------------------------------------------------

Tabbed by: maps.run



Tuning: Drop D (DADGBE)

Intro
E|--------------------------------|
B|--------------------------------|
G|--------------------------------|
D|-000-333-555-666-7-10-----------|
A|-000-333-555-666-7-10-----------|
D|-000-333-555-666-7-10-----------|

Verse
E|----------------------------------------------------|
B|----------------------------------------------------|
G|----------------------------------------------------|
D|-----------------------------------8------77-55-33--|
A|-----------------------------------8(10x)-77-55-33--|
D|--10-12--10-12--10-12--10-12--10\--8------77-55-33--|

Pre-Chorus1
E|----------------|
B|----------------|
G|----------------|
D|-5------7-----0-|
A|-5(12x)-7(4x)-0-|
D|-5------7-----0-|

Chorus1             
E|----------------------------|
B|----------------------------|
G|----------------------------|
D|-0-----3-----8-----5-5-7-3--|
A|-0(4x)-3(4x)-8(4x)-5-5-7-3--|
D|-0-----3-----8-----5-5-7-3--|

Post-Chorus
E|---|
B|---|
G|---|
D|-0-|
A|-0-|
D|-0-|

Pre-Chorus2
E|--------------------------|
B|--------------------------|
G|--------------------------|
D|-5------7-----0-----0-0-0-|
A|-5(12x)-7(4x)-0(9x)-0-0-0-|
D|-5------7-----0-----0-0-0-|
                      * *
Bridge1
E|------------------------------------------------------------------------------|
B|------------------------------------------------------------------------------|
G|------------------------------------------------------------------------------|
D|-0000-0000-0-0000-3333-3333-3-3333-5555-5555-5-5555-8888-88810-10-11.11.11.11-|
A|-0000-0000-0-0000-3333-3333-3-3333-5555-5555-5-5555-8888-88810-10-11.11.11.11-|
D|-0000-0000-0-0000-3333-3333-3-3333-5555-5555-5-5555-8888-88810-10-11.11.11.11-|
 | **** **** * **** **** **** * **** **** **** * **** **** ***** ** ** ** ** **
E|-----------------------------------------------------------------------|
B|-----------------------------------------------------------------------|
G|-----------------------------------------------------------------------|
D|-----------------------------------------------------------------------|
A|-----------------------------------------------------------------------|
D|-0-0-0-00-0-000-3-3-3-33-3-333-5-5-5-55-5-555-8-8-8-810-10-11.11.11/12-|

Bridge 2         3x|
E|-----------------|-------------|
B|-----------------|-------------|
G|-----------------|-------------|
D|-----------------|-5-----7-----|
A|-----------------|-5(4x)-7(4x)-|
D|-0-0-3-0-3-5-3-0-|-5-----7-----|

Bridge3
E|-------------------------------------|
B|-------------------------------------|
G|-------------------------------------|
D|-5~----7~--0~----3~----5~----8~--10~-|
A|-5~----7~--0~----3~----5~----8~--10~-|
D|-5~----7~--0~----3~----5~----8~--10~-|
 |
E|-------------------------------------------------|
B|-15-15-15-18-18-18-17-17-17-14-14-14-15-15-14-14-|
G|-------------------------------------------------|
D|-------------------------------------------------|
A|-------------------------------------------------|
D|-------------------------------------------------|
 |
E|-----------------------------------------|
B|-15-15-15-18-18-18-17-17-17-14-14-14-15b-|
G|-----------------------------------------|
D|-----------------------------------------|
A|-----------------------------------------|
D|-----------------------------------------|

Chorus2             
E|----------------------------------------|
B|----------------------------------------|
G|----------------------------------------|
D|-0------3------8------5-----7-----3-----|
A|-0(16x)-3(16x)-8(16x)-5(8x)-7(4x)-3(4x)-|
D|-0------3------8------5-----7-----3-----|

Outro
E|---------------------------------------------------|
B|---------------------------------------------------|
G|---------------------------------------------------|
D|-8------5-----7-----3-----8------5-----7-----3-----|
A|-8(16x)-5(8x)-7(4x)-3(4x)-8(16x)-5(8x)-7(4x)-3(4x)-|
D|-8------5-----7-----3-----8------5-----7-----3-----|
 |
E|------------------------|
B|------------------------|
G|------------------------|
D|-000-333-555-666-7-10-0-|
A|-000-333-555-666-7-10-0-|
D|-000-333-555-666-7-10-0-|

Intro 2x
Verse 4x
Pre-Chorus1 1x
Intro 1x
Chorus 2x
Post-Chorus 1x
Intro 1x
Verse 3x
Pre-Chorus2 1x
Intro 1x (Palm-muted!!)
Intro 1x
Chorus 2x
Bridge1 1x
Bridge2 2x
Bridge3 1x
Chorus 2x
Outro 1x

/   slide up
\   slide down
~   let ring
b   bend
h   hammer-on
p   pull-off
+   scrape harmonics
*   palm mute
comments
print report bad tab
3 comments total.
+1 reply
strat-rocker-06 wrote on March 14 2009, 07:15 pm

Awesome! No problems that I can see. Do some more, "The End is Not the End" has some sweet guitar parts.

0 reply
nickjlunn wrote on October 23 2009, 11:19 pm

it would be cool if you could tab out the guitar 2

0 reply
nostheboss wrote on September 23 2010, 08:59 pm

its pretty good but the intro should say

Intro
E|-----------------------------------|
B|-----------------------------------|
G|-----------------------------------|
D|-000-333-555-666-77-1010-----------|
A|-000-333-555-666-77-1010-----------|
D|-000-333-555-666-77-1010-----------|

but somtimes its is

E|--------------------------------|
B|--------------------------------|
G|--------------------------------|
D|-000-333-555-666-7-10-----------|
A|-000-333-555-666-7-10-----------|
D|-000-333-555-666-7-10-----------|

so i'll call this ^ intro 2
here's how it goes

Intro 2x
Verse 4x
Pre-Chorus1 1x
Intro 2 1x
Chorus 2x
Post-Chorus 1x
Intro 1x
Verse 3x
Pre-Chorus2 1x
Intro 1x (Palm-muted!!)
Intro 2 1x
Chorus 2x
Bridge1 1x
Bridge2 2x
Bridge3 1x
Chorus2 2x
Outro 1x

the second part of bridge 1 is a little messed up and the chorus struming patern is kinda like

0-0-00-00000-3-3-33-33333-8-8-88-88888-5-5-7-3
0-0-00-00000-3-3-33-33333-8-8-88-88888-5-5-7-3
0-0-00-00000-3-3-33-33333-8-8-88-88888-5-5-7-3
d-u-du-dudud-d-u-du-dudud-d-u-du-dudud-d-d-d-d

d= down
u= up

I want to post or [tab]
guest
You may want to rate the tab now too:
select rating
Please do not post tabs as comments. Select "correction" instead!