Oops, an error
Loading. Please wait.

Make A Face Like You Mean It Vampires Tab

781 views 1 this week
2 commentsread comments
1 2 3 4 5
please rate
add to favorites
launch autoscroll
font size
0
reset
how to read this tab
guitar tuner
Autoscroll
slow
fast
+/-
esc
set tempo
stop
Help us to improve Ultimate-Guitar.com Take our survey!
×
song:Make A Face Like You Mean It (Vampires)
by:house of heroes

m.f=moderately fast
h=hammer on
p=pull off
tr~~=trill
p.m.=palm mute
/=slide
*=harmonic

listen to the song for the timeing :)

intro:
                       m.f
e|---------------------999-777-999-777---------|
B|-------------------------------------7h8p7h8-|
G|---------------------------------------------|
D|-9-9--9-9--9-9--9-9--------------------------|
A|-9-9--9-9--9-9--9-9--------------------------|
E|-7-7--7-7--7-7--7-7--------------------------|
   tr~       tr~

                       m.f
e|---------------------999-777-999-777----------|
B|--------------------------------------7h8p7---|
G|--------------------------------------------7-|
D|-9-9--9-9--9-9--9-9---------------------------|
A|-9-9--9-9--9-9--9-9---------------------------|
E|-7-7--7-7--7-7--7-7---------------------------|
   tr~       tr~


e|----------------------------------------------|
B|----------------------------------------------|
G|------------------------2-2-2-2-2-2-2-2-------|
D|-9--7---5---------------2-2-2-2-2-2-2-2-------|
A|-9--7---5---------------2-2-2-2-2-2-2-2-------|
E|-7--5---3-------------------------------------|
   tr~       tr~         tr~~~~~~~~~~~~~

riff: 

e|--0----0-----0--------------------------------|
B|--0----0-----0--------------------------------|
G|-12---13----10--------------------------------| (2X)
D|--0----0-----0--------------------------------|
A|--0----0-----0--------------------------------|
E|----------------------------------------------|

then:

e|-----------------------0---0----0------------|
B|-----------------------0---0----0------------|
G|-2-2-2-2-2-2-2-2-------12-13---10------------|
D|-2-2-2-2-2-2-2-2-------0---0----0------------|
A|-2-2-2-2-2-2-2-2-------0---0----0------------|
E|---------------------------------------------|
   tr~~~~~~~~~~~~~

e|-------------------------0---0---0-----------|
B|-------------------------0---0---0-----------|
G|-4----0-4----0--4-*-----12--13--10-----------|
D|-4----0-4----0--4--------0---0---0-----------|
A|-4----0-4----0--4--------0---0---0-----------|
E|-0----0-0----0--4----------------------------|


e|---------------------------------------------|
B|---------------------------------------------|
G|---------------------------------------------|
D|-9-9-9-9-9-9-9-9-9-9-9-9-9-------------------|
A|-9-9-9-9-9-9-9-9-9-9-9-9-9-------------------|
E|-7-7-7-7-7-7-7-7-7-7-7-7-7-------------------|
   p.m . . . . . . . . . . .

e|---------------------------------------------|
B|---------------------------------------------|
G|-------------------------------7-8--7--------|
D|-----------5-6-------6-----------------------|
A|-5-6-----------6-7------6-7-5-------6-7-6-4--|
E|------6-7----------6-------------------------|

chorus: 

m.f
e|---------------------------------------------------|
B|---------------------------------------------------|
G|---------------------------------------------------|   
D|-7-7-7-7-7-7-7-7-\4-4-4-4-4-4-4-4/-9-9-9-9-9-9-9-9-| (4X)  
A|-7-7-7-7-7-7-7-7-\4-4-4-4-4-4-4-4/-9-9-9-9-9-9-9-9-|    
E|-5-5-5-5-5-5-5-5-\2-2-2-2-2-2-2-2/-7-7-7-7-7-7-7-7-|


post chorus:   (up and down motion)
e|----------------------------------|
B|----------------------------------|
G|----------------------------------|
D|-3-3-3-3-3-3----------------------|
A|-3-3-3-3-3-3----------------------|
E|-1-1-1-1-1-1----------------------|

e|-----------------------------------------|
B|-----------------------------------------|
G|-----------------------------------------|
D|--------------9-----7-----5--------------|
A|--------------9-----7-----5--------------|
E|--------------7-----5-----3--------------|


e|-------------------------------------------------|
B|-------------------------12-10---10-10-----------|
G|-2-2-2-2-2-2-2-2------------------------10-11-10-|
D|-2-2-2-2-2-2-2-2---------------------------------|(2x)
A|-2-2-2-2-2-2-2-2---------------------------------|
E|-------------------------------------------------|
   tr~~~~~~~~~~~~~

e|-------------------------------------------------|
B|----------------------------12-10---10-10--------|
G|-4----0-4-----0---4*----------------------10-11-10| (2x)
D|-4----0-4-----0---4------------------------------|
A|-4----0-4-----0---4------------------------------|
E|-0----0-0-----0---4------------------------------|


e|---------------------------------------------|
B|---------------------------------------------|
G|------2--------------------------------------|
D|-1-2-----1-2-3---1-2-------------------------|
A|---------------------------------------------|
E|-------------------------1-2-3---------------|


e|---------------------------------------------|
B|---------------------------------------------|
G|--------------------------7-8-7--------------|
D|---------------------------------------------|
A|---------------------------------6-7-6-4-----|
E|-1-2-3---1-2-3-------------------------------|

chorus: 

m.f
e|--------------------------------------------------|
B|--------------------------------------------------|
G|--------------------------------------------------|   
D|-7-7-7-7-7-7-7-7-\4-4-4-4-4-4-4-4/-9-9-9-9-9-9-9-9|(4X)   
A|-7-7-7-7-7-7-7-7-\4-4-4-4-4-4-4-4/-9-9-9-9-9-9-9-9|    
E|-5-5-5-5-5-5-5-5-\2-2-2-2-2-2-2-2/-7-7-7-7-7-7-7-7|

post chorus: (up and down motoin)
e|---------------------------------------------|
B|---------------------------------------------|
G|---------------------------------------------|
D|-3-3-3-3-3-3---------------------------------|
A|-3-3-3-3-3-3---------------------------------|
E|-1-1-1-1-1-1---------------------------------|

e|---------------------------------------------|
B|---------------------------------------------|
G|---------------------------------------------|
D|-9-9-9-9-9-9-----9-9--9-9--9-9--9-9----------|
A|-9-9-9-9-9-9-----9-9--9-9--9-9--9-9----------|
E|-7-7-7-7-7-7-----7-7--7-7--7-7--7-7----------|
                   tr~       tr~

e|---------------------------------------------------------|
B|12-12-10-10-12-12-10-10----------------------13-14-13-15-|
G|------------------------------------10-10-11-11----------|
D|---------------------------------------------------------|
A|---------------------------------------------------------|
E|---------------------------------------------------------|

e|----------------------------------------------|
B|----------------------------------------------|
G|----------------------------------------------|
D|-9-9--9-9--9-9--9-9---------------------------|
A|-9-9--9-9--9-9--9-9---------------------------|
E|-7-7--7-7--7-7--7-7---------------------------|
   tr~       tr~

e|--------------------------------------------------|
B|12-12-10-10-12-12-10-10---------------13-14-13-15-|
G|-------------------------10-10-11-11--------------|
D|--------------------------------------------------|
A|--------------------------------------------------|
E|--------------------------------------------------|

e|----------------------------------------------|
B|----------------------------------------------|
G|----------------------------------------------|
D|-9-9--9-9--9-9--9-9---------------------------|
A|-9-9--9-9--9-9--9-9---------------------------|
E|-7-7--7-7--7-7--7-7---------------------------|
   tr~       tr~

e|-----------------------------------------------------------|
B|12-12-10-10-12-12-10-10------------------------13-14-13-15-|
G|-----------------------------------10-10-11-11-------------|
D|-----------------------------------------------------------|
A|-----------------------------------------------------------|
E|-----------------------------------------------------------|



e|---------------------------------------------|
B|---------------------------------------------|
G|---------------------------------------------|
D|-9-9--9-9--9-9--9-9---9-7-5---7/8/9----------|
A|-9-9--9-9--9-9--9-9---9-7-5---7/8/9----------|
E|-7-7--7-7--7-7--7-7---7-5-3---5/6/7----------|
   tr~       tr~

e|---------------------------------------------|
B|---------------------------------------------|
G|---------------------------------------------|
D|-9---9-9-9-9-9---7---7-7-7-7-7---5/7---------|
A|-9---9-9-9-9-9---7---7-7-7-7-7---5/7---------|
E|-7---7-7-7-7-7---5---5-5-5-5-5---3/5---------|
       p.m . . .       p.m . . .

chorus:

m.f
e|---------------------------------------------------|
B|---------------------------------------------------|
G|---------------------------------------------------|   
D|-7-7-7-7-7-7-7-7-\4-4-4-4-4-4-4-4/-9-9-9-9-9-9-9-9-|(4X)   
A|-7-7-7-7-7-7-7-7-\4-4-4-4-4-4-4-4/-9-9-9-9-9-9-9-9-|    
E|-5-5-5-5-5-5-5-5-\2-2-2-2-2-2-2-2/-7-7-7-7-7-7-7-7-|

post chorus:   (up and down motion)
e|----------------------------------|
B|----------------------------------|
G|----------------------------------|
D|-3-3-3-3-3-3----------------------|
A|-3-3-3-3-3-3----------------------|
E|-1-1-1-1-1-1----------------------|

Play chorus again here but slower:

e|---------------------------------------------------|
B|---------------------------------------------------|
G|---------------------------------------------------|   
D|-7-7-7-7-7-7-7-7-\4-4-4-4-4-4-4-4/-9-9-9-9-9-9-9-9-|(4X)   
A|-7-7-7-7-7-7-7-7-\4-4-4-4-4-4-4-4/-9-9-9-9-9-9-9-9-|    
E|-5-5-5-5-5-5-5-5-\2-2-2-2-2-2-2-2/-7-7-7-7-7-7-7-7-|

post chorus:   (up and down motion)
e|----------------------------------|
B|----------------------------------|
G|----------------------------------|
D|-3-3-3-3-3-3----------------------|
A|-3-3-3-3-3-3----------------------|
E|-1-1-1-1-1-1----------------------|


e|-------------------------------------------|
B|-------------------------------------------|
G|-------------------------------------------|
D|-9-9-9-9----3------------------------------|
A|-9-9-9-9----3------------------------------|
E|-7-7-7-7----1------------------------------|

end on:

e|---------------------------------------------|
B|---------------------------------------------|
G|---------------------------------------------|
D|-9-9----9-7-5--------------------------------|
A|-9-9----9-7-5--------------------------------|
E|-7-7----7-
comments
We did not receive enough feedback on this tab! Please rate:
print report bad tab
1 2 3 4 5
2 comments total.
0 reply
gman61092 28 wrote on June 28 2006, 04:11 pm

This tab is incomplete!!!!! How do u expect to get 5 whole stars?!!!!?!?!?!?!!?!??!?!?!?! What the crap, man?!?!?!!??!

0 reply
Brittney 25 wrote on October 25 2006, 02:03 pm, edited on June 19 2014, 09:29 pm

Not good

I want to post or [tab]
guest
You may want to rate the tab now too:
select rating
Please do not post tabs as comments. Select "correction" instead!