Oops, an error
Loading. Please wait.

Metaphor In Paretheses Tab

467 views 1 this week
no commentswrite comment
1 2 3 4 5
2 more votes to show rating
add to favorites
launch autoscroll
font size
0
reset
how to read this tab
guitar tuner
Autoscroll
slow
fast
+/-
esc
set tempo
stop
Help us to improve Ultimate-Guitar.com Take our survey!
×
Difficulty
novice
artist: house of heroes
song: metaphor in paretheses
album: house of heroes
gotee records 2005

~=let ring
..=plam mute
/=slide

listen to the song for timeing :)

e|---------------------------------------------------|
B|---------------------------------------------------|
G|-9-9/-6/-4/-6--------------------------------------|
D|-9-9/-6/-4/-6--2-----------------------------------| (2x)
A|-7/6/-4/-2/-4--2-----------------------------------|
E|---------------0-----------------------------------|

D|-2~---------2~--------------------------------------|
A|-2----------2---------------------------------------|
E|-0----------0---------------------------------------|

play with vibrato here:

e|-------------------------------------------------|
B|-------------------------------------------------|
G|-9-------7-7-------10--------9-------------------|
D|-9-------7-7-------10--------9-------------------| (3x)
A|-9-------7-7-------10--------9-------------------|
E|-0-------7-7--------0--------0-------------------|

and if you dont think this is right then e-mail me,with what you think is right

play this about 18x:

e|----------------------------------------------------|
B|-----------------11---------------------------------|
G|-----------11-------11------------------------------|
D|------13--------------------------------------------|
A|-12-------------------------------------------------|
E|----------------------------------------------------|

D|-5-5-5-5-5-5---5~/-7~/-9~/-11~/13----|
A|-5-5-5-5-5-5---5-/-7-/-9-/-11-/13----| (pause)
E|-3-3-3-3-3-3---3-/-5-/-7-/--9-/11----|

D|-2~-----------2~------------------------------------|
A|-2------------2-------------------------------------|
E|-0------------0-------------------------------------|

e|-------------------------------------------------|
B|-------------------------------------------------|
G|-------------------------5-5-5-5-5--3-3-3-3-3----|
D|-5-5-5-5-5----5-5-5-5-5--5-5-5-5-5--3-3-3-3-3----|
A|-5-5-5-5-5----5-5-5-5-5--3-3-3-3-3--1-1-1-1-1----|
E|-3-3-3-3-3----3-3-3-3-3--------------------------|
p.m               . . . . . .    . . . . . .. .


e|-----------------------------------------------|
B|-----------------------------------------------|
G|-7-7-7-7-7-------------------------------------|
D--7-7-7-7-7-7-7-7-7-7--9-9-9-9-9-11-11-11-11-11-|
A|-5-5-5-5-5-7-7-7-7-7--9-9-9-9-9-11-11-11-11-11-|
E|-----------5-5-5-5-5--7-7-7-7-7-9--9---9--9--9-|
p.m. . . . . .  . . . . . .   . . . . . . .   .

D|-13-13-13-13-13------------11~------------------------|
A|-13-13-13-13-13------------11-------------------------|
E|-11-11-11-11-11-------------9-------------------------|
p.m . . . . . . .

e|---------------------------------------------------|
B|---------------------------------------------------|
G|-9-9/-6/-4/-6--------------------------------------|
D|-9-9/-6/-4/-6--2-----------------------------------| (2x)
A|-7/6/-4/-2/-4--2-----------------------------------|
E|---------------0-----------------------------------|

pause....
and this may be bass but here it is:

A|-7/6/4/2/4/2----------------


D|-5--2--5--2------------------|
A|-5--2--5--2------------------|
E|-3--0--3--0------------------|

e|---------------------------------------------------|
B|---------------------------------------------------|
G|-9-9/-6/-4/-6--------------------------------------|
D|-9-9/-6/-4/-6--2-----------------------------------| (3x)
A|-7/6/-4/-2/-4--2-----------------------------------|
E|---------------0-----------------------------------|


e|---------------------------------------------------|
B|---------------------------------------------------|
G|-9-9-9-9-9-9---------------------------------------|
D|-9-9-9-9-9-9--9-9-9-9-9-9--7-7-7-7-7-7-9-9-9-9-9-9-| (2x)
A|-7-7-7-7-7-7--9-9-9-9-9-9--7-7-7-7-7-7-9-9-9-9-9-9-|
E|--------------7-7-7-7-7-7--5-5-5-5-5-5-7-7-7-7-7-7-|

D|-11-11-11-11-11--13-13-13-13-13-11-11-11-11-11-|
A|-11-11-11-11-11--13-13-13-13-13-11-11-11-11-11-|
E|--9--9--9--9--9--11-11-11-11-11--9--9--9--9--9-|

D|-12-13-7-5---------------------------------|
A|-12-13-7-5---------------------------------|
E|-10-11-5-3---------------------------------|


D|-2~-----------2~-----------2~--------------|
A|-2------------2------------2---------------|
E|-0------------0------------0---------------|

e|-----------------------------------------------------|
B|-----------------------------------------------------|
G|-9---------------------------------------------------|
D|-9--9--7--5------------------------------------------| (2x)
A|-7--9--7--5------------------------------------------|
E|----7--5--3------------------------------------------|

D|-5-5-5-5-5--7-7-7-7-7--9-9-9-9-9--11-11-11-11-11-|
A|-5-5-5-5-5--7-7-7-7-7--9-9-9-9-9--11-11-11-11-11-|
E|-3-3-3-3-3--5-5-5-5-5--7-7-7-7-7--9---9--9--9--9-|

D|-12--13-5---2~-------2-------------------------|
A|-12--13-5---2--------2-------------------------|
E|-10--11-3---0--------0-------------------------|

D|----------------------------------------------|
A|-9-9-9-9-9-9-9-9-9----(alot)------------------|
E|-7-7-7-7-7-7-7-7-7----------------------------|

---------------------------------------------------------------------------|
 play all of this in here about 3x:                                        |
                                                                           |
                                                                           |
e|----------------------------------------------------------               |
B|----------------------------------------------------------               |
G|-----------5-5-5-5-5-3-3-3-3-3-7-7-7-7-7------------------               |
D|-5-5-5-5-5-5-5-5-5-5-3-3-3-3-3-7-7-7-7-7------------------               |
A|-5-5-5-5-5-3-3-3-3-3-1-1-1-1-1-5-5-5-5-5------------------               |
E|-3-3-3-3-3------------------------------------------------               |
                                                                           |
e|---------------------------------------------------------                |
B|---------------------------------------------------------                |
G|---------------------------------------------------------                |
D|-7-7-7-7-7-9-9-9-9-9--11-11-11-11-11---------------------                |
A|-7-7-7-7-7-9-9-9-9-9--11-11-11-11-11---------------------                |
E|-5-5-5-5-5-7-7-7-7-7---9--9--9--9--9---------------------                |
                                                                           |
D|-13-13-13-13-13-----------------------------------------                 |
A|-13-13-13-13-13-----------------------------------------                 |
E|-11-11-11-11-11-----------------------------------------                 |
                                                                           |
---------------------------------------------------------------------------|


D|-5-5-5-5-5-5/-7-7-7-7-7-7/-9-9-9-9-9-9/-11-11-11-11-11-11-|
A|-5-5-5-5-5-5/-7-7-7-7-7-7/-9-9-9-9-9-9/-11-11-11-11-11-11-| (3x)
E|-3-3-3-3-3-3/-5-5-5-5-5-5/-7-7-7-7-7-7/-9--9---9--9--9--9-|

both of these next two parts are kinda playing at the same time:

e|------------------------------------------------------------|
B|------------------------------------------------------------|
G|-9--9/-6/-4-------------------------------------------------|
D|-9--9/-6/-4-------------------------------------------------|
A|-7/-6/-4/-2-------------------------------------------------|
E|------------------------------------------------------------|

e|------------------------------------------------------------|
B|------------------------------------------------------------|
G|-17-17-17-17-17-17-17--15-15-15-15-15-15--19-19-19-19-19-19-|
D|-16-16-16-16-16-16-16--14-14-14-14-14-14--18-18-18-18-18-18-|
A|--x-x---x--x--x--x--x---x-x--x--x--x--x----x--x--x--x--x--x-|
E|-15-15-15-15-15-15-15--13-13-13-13-13-13--17-17-17-17-17-17-|

end on:
D|----6~-------------|
A|----6--------------|
E|----4--------------|


this plays through out the song:

A|--7/6/4/2/4/
Suggest correction
Give kudos to tab author, rate the tab!
1 2 3 4 5
comments
print report bad tab
guest
You may want to rate the tab now too:
select rating
Wanna post a correction for this tab? Suggest correction