Oops, an error
Loading. Please wait.

Out My Way Tab

1,352 views 3 this week
no commentswrite comment
1 2 3 4 5
please rate
add to favorites
launch autoscroll
font size
0
reset
how to read this tab
guitar tuner
Autoscroll
slow
fast
+/-
esc
set tempo
stop
Help us to improve Ultimate-Guitar.com Take our survey!
×
Contributor
Difficulty
Tuning
novice
D A D G B E
This song is awesome and pretty easy too. I did this by ear, pretty sure this is what Tim plays.
Tuning: Drop D


This is the intro and the verse. They two things in the 1st verse, this is the 1st 
thing. Do this 4 times.
E|--------------------------------------------------------------------|
B|--------------------------------------------------------------------|
G|--------------------------------------------------------------------|
D|-----------------7~----------------9~----------------9/11~----------|
A|--------9--7--9-----------9--7--9-----------9--7--9--------9--7--9--|
D|--0--0--------------0--0--------------0--0--------------------------|x4

E|--------------------------------------------------------------------|
B|--------------------------------------------------------------------|
G|--------------------------------------------------------------------|
D|--5--5-----------7~-5--5-----------9~-5--5-----------9/11~----------|
A|--5--5--9--7--9-----5--5--9--7--9-----5--5--9--7--9--------9--7--9--|
D|--5--5--------------5--5--------------5--5--------------------------|

E|-----------------------------------------------------------x-x-x-x--|
B|-----------------------------------------------------------x-x-x-x--|
G|-----------------------------------------------------------x-x-x-x--|
D|-----------------7~----------------9~----------------9/11~-x-x-x-x--|
A|--------9--7--9-----------9--7--9-----------9--7--9--------x-x-x-x--|
D|--0--0--------------0--0--------------0--0-----------------x-x-x-x--|
Chorus
E|---------------------------------------------------------------|
B|---------------------------------------------------------------|
G|---------------------------------------------------------------|
D|--5-----9--------0--7--4----5----4--2--2--2--0--2--0--7--7--7--|
A|--5x16--9x8------0--7--4----5x8--4--2--2--2--0--2--0--7--7--7--|
D|--5-----9--------0--7--4----5----4--2--2--2--0--2--0--7--7--7--|
Verse 2
Guitar 1:
E|--------------------------------------------------------------------|
B|--------------------------------------------------------------------|
G|--------------------------------------------------------------------|
D|-----------------7~----------------9~----------------9/11~----------|
A|--------9--7--9-----------9--7--9-----------9--7--9--------9--7--9--|
D|--0--0--------------0--0--------------0--0--------------------------|

E|---------------------------------------------------------------------|
B|---------------------------------------------------------------------|
G|---------------------------------------------------------------------|
D|--0--0----------0--0----------0--0----------0--0---------------0--0--|
A|--0--0----------0--0----------0--0----------0--0------9--7--9--0--0--|
D|--0--0----------0--0----------0--0----------0--0---------------0--0--| x2

E|------------------------------------------------------------------------|
B|------------------------------------------------------------------------|
G|------------------------------------------------------------------------|
D|--5--5------5--5------5--5--5--5-----------0--0----0--0--------0--0-----|
A|--5--5------5--5------5--5--5--5--9--7--9--0--0----0--0--------0--0-----|
D|--5--5------5--5------5--5--5--5-----------0--0----0--0--------0--0-----|
Guitar 2: This is played in the back once the second row of the 1st starts.
E|--9-------------------------------9--------------------------------|
B|-----10------------------------------10----------------------------|
G|---------11--9---------------------------11--9---------------------|
D|----------------11------------------------------11-----------------|
A|--------------------12--10--12----------------------12--10--12-----|
D|-------------------------------------------------------------------|
Chorus:
E|---------------------------------------------------------------|
B|---------------------------------------------------------------|
G|---------------------------------------------------------------|
D|--5-----9--------0--7--4----5----4--2--2--2--0--2--0--7--7--7--|
A|--5x16--9x8------0--7--4----5x8--4--2--2--2--0--2--0--7--7--7--|
D|--5-----9--------0--7--4----5----4--2--2--2--0--2--0--7--7--7--| x2
Bridge, Guitar 1
E|-------------------------------------------------------------------------|
B|-------------------------------------------------------------------------|
G|-------------------------------------------------------------------------|
D|-----------------7-----------------9-----------------9/11-------------0~-|
A|--------9--7--9-----------9--7--9-----------9--7--9----------9--7--9--0~-|
E|--0--0--------------0--0--------------0--0----------------------------0~-|
Guitar 2:
E|------------------------|
B|------------------------|
G|----11------9------11---|
D|----11x9----9x3----11x9-|
A|----9-------7------9----|
E|------------------------| Repeat this until the bridge is over.
Guitar 1: Play this while guitar 2 above plays his part on the 2nd or 3rd time over.

E|-------------------------------------------------------------------------|
B|--15--15--14--14--12--12--14--14--15--15--14--14--12--12--14--14---------|
G|-------------------------------------------------------------------------|
D|-------------------------------------------------------------------------|
A|-------------------------------------------------------------------------|
E|-------------------------------------------------------------------------|x4

E|----------------------------------------------|
B|--14--15--14--15--15--15--15--15--15--15--15~-|
G|----------------------------------------------|
D|----------------------------------------------|
A|----------------------------------------------|
E|----------------------------------------------|
Both guitars:
E|--------------------------|
B|--------------------------|This is the only guitar part in the end of the
G|--------------------------|bridge.
D|----0--0----0--0----0--0--|
A|----0--0----0--0----0--0--|
E|--9/0--0----0--0----0--0--|
Chorus:
E|---------------------------------------------------------------|
B|---------------------------------------------------------------|
G|---------------------------------------------------------------|
D|--5-----9--------0--7--4----5----4--2--2--2--0--2--0--7--7--7--|
A|--5x16--9x8------0--7--4----5x8--4--2--2--2--0--2--0--7--7--7--|
D|--5-----9--------0--7--4----5----4--2--2--2--0--2--0--7--7--7--| x2

E|---------------------------------------------------------------------|
B|---------------------------------------------------------------------|
G|---------------------------------------------------------------------|
D|-----------------7~----------------9~----------------9/11~-----------|
A|--------9--7--9-----------9--7--9-----------9--7--9--------9--7--9---|
D|--0--0--------------0--0--------------0--0---------------------------|x4

E|--------|
B|--------|
G|--------|
D|--0--0--|
A|--0--0--|
E|--0--0--|

I hope this works for you guys, it works for me. I know that weird background E string 
notes on the second verse are a little off, but it was accurate enough for my standards. 
Good luck learning this!
comments
We did not receive enough feedback on this tab! Please rate:
print report bad tab
1 2 3 4 5
I want to post or [tab]
guest
You may want to rate the tab now too:
select rating
Please do not post tabs as comments. Select "correction" instead!