Oops, an error
Loading. Please wait.

Voices Tab

1,154 views 1 this week
2 commentsread comments
1 2 3 4 5
please rate
add to favorites
launch autoscroll
font size
0
reset
how to read this tab
guitar tuner
Autoscroll
slow
fast
+/-
esc
set tempo
stop
Help us to improve Ultimate-Guitar.com Take our survey!
×
Author
Difficulty
intermediate
Song: Voices
Artist: House Of Heroes
Album: The End Is Not the End

Tuning: Standard

Hey, please rate and comment. Uh, I haven't tabbed the strumming for the first part of 
outro, but it's real straightforward, so you guys can figure that out yourself. Have fun =]

Key:
Bend       b
Return     r
Slide      s
Dead Note  x
Hammer On  h
Pull Off   p

Intro
e|--------|----------|---------|----------|-----------|
B|--------|----------|---------|----------|-----------|
G|--------|----------|---------|----------|-----------|
D|--6b7r6-|----------|---------|----------|---4-6b7r6-|
A|--------|----------|-------2-|-4-4--444-|-7---------|
E|--------|-2-2-2222-|-5-2-5---|----------|-----------|

e|-------------|---------|----------|------------|
B|-------------|---------|----------|------------|
G|-------------|---------|----------|------------|
D|-------------|---------|----------|---4-6b7r6--|
A|--9s---------|-------2-|-4-4--444-|-7----------|
E|-----2-2-222-|-5-2-5---|----------|------------|

e|-----------|------------|
B|-----------|------------|
G|-----------|------------|
D|-----------|------------|
A|--9-979-97-|-9-979-9-7--|
E|-----------|------------|

Verse
e|--10~---|--------|--10~--9~-------|----------------|
B|--12~---|--10~---|--12~--X----12~-|--10~--10~--9~--|
G|--11~---|--11~---|--11~--11~--11~-|--11~--9~-------|
D|--9~----|--11~---|--9~---9~---9~--|--11~--11~------|
A|--------|--9~----|----------------|--9~---9~-------|
E|--------|--------|----------------|----------------|

e|------------|--------|------------|--------------|
B|----------7-|-----9~-|--------2---|----3--2h3p2--|
G|------7-----|-7------|----2-----2-|--------------|
D|--7h9---9---|---9----|--4---4-----|--4-----------|
A|------------|--------|------------|--------------|
E|------------|--------|------------|--------------|

e|------------|--------|
B|----------7-|-----9~-|
G|------7-----|-7------|
D|--7h9---9---|---9----|
A|------------|--------|
E|------------|--------|

Pre-chorus
e|-------------------|--------------|
B|----------7--------|--------------|
G|------7-----7---7--|-----10---10~-|
D|----7---7-----7----|---9----9-9~--|
A|--5----------------|-8--------8~--|
E|-------------------|--------------|

Chorus
e|------|---------|---------|----------|----------|
B|------|---------|---------|----------|----------|
G|------|---------|---------|----------|----------|
D|------|---------|---------|----------|-------4--|
A|------|---------|-------2-|-4-4--444-|-3-3-7----|
E|--14s-|-2-2-2-2-|-2-2-5---|----------|----------|

e|----------|---------|----------|----------|
B|----------|---------|----------|----------|
G|----------|---------|----------|----------| Play
D|----------|---------|----------|-------4--|  x3
A|----------|-------2-|-4-4--444-|-3-3-7----|
E|--2-2-2-2-|-2-2-5---|----------|----------|

Post-chorus
e|----------|-----------|
B|----------|-----------|
G|----------|-----------|
D|----------|-----------|
A|--9-979-9-|-----------|
E|----------|-2-4-5-7s--|

Repeat Verse

Repeat Pre-chorus

Repeat Chorus

Break (No guitar)

Outro pt.1
e|------------|
B|------------|
G|------------|
D|--xxxxxxxx--|
A|--xxxxxxxx--|
E|--xxxxxxxx--|

e|-----|-----|---------|
B|-----|-----|---------|
G|-----|-----|---------| Play
D|--2--|--7--|--9--12--|  x6
A|--x--|--x--|--x--x---|
E|--4--|--5--|--7--10--|

Outro pt.2 (Play x2)
e|-----------------|----------------|
B|-----------------|----------------|
G|-----------------|----------------|
D|--4444-4-4-44444-|-4444-4-4-44444-|
A|--4444-4-4-44444-|-4444-4-4-44444-|
E|--2222-2-2-22222-|-2222-2-2-22222-|

e|-----------------|-------------------------|
B|-----------------|-------------------------|
G|-----------------|-------------------------|
D|--7777-7-7-77777-|-9999-12-12-1212121212s--|
A|--7777-7-7-77777-|-9999-12-12-1212121212s--|
E|--5555-5-5-55555-|-7777-10-10-1010101010s--|
Suggest correction
What's this?
You can suggest a correction to this tab. Community and Mods will review your correction and vote to approve or reject it.
comments
We did not receive enough feedback on this tab! Please rate:
print report bad tab
1 2 3 4 5
2 comments total.
0 reply
linds4lif 150 wrote on October 24 2009, 03:36 pm

Amazing job!

0 reply
sumrandomhobo 762 wrote on May 31 2010, 11:10 pm

Btw this here:
e|-----|-----|---------|
B|-----|-----|---------|
G|-----|-----|---------| Play
D|--2--|--7--|--9--12--| x6
A|--x--|--x--|--x--x---|
E|--4--|--5--|--7--10--|
is supposed to be
e|-----|-----|---------|
B|-----|-----|---------|
G|-----|-----|---------| Play
D|--4--|--7--|--9--12--| x6
A|--x--|--x--|--x--x---|
E|--2--|--5--|--7--10--|
haha typo

guest
You may want to rate the tab now too:
select rating
Please do not post tabs as comments. Select "correction" instead!