Oops, an error
Loading. Please wait.

La Vie En Rose Ukulele Chords

version 8
version 8

Whole song

  • Altered chords that sound more appropriate.
  • Ukulele version of "La Vie En Rose" from How I Met... Show more
  • Some of these chords are a little complex, but the... Show more
61 views 3 this week
no commentswrite comment
1 2 3 4 5
2 more votes to show rating
add to favorites
launch autoscroll
font size
0
reset
transpose
0
reset
simplify chords
display chords
guitar tuner
Autoscroll
slow
fast
+/-
esc
set tempo
stop
Help us to improve Ultimate-Guitar.com Take our survey!
×
Author
Difficulty
intermediate
About this tab version
Some of these chords are a little complex, but they add a depth that other versions are missing. Have fun. Was this info helpful? Yes No
CHORDS
      G      Bm7      G6     Bbdim    Am     D7     D7#5    Cm6      A7    D7b5
A |---2---|---2---|---2---|---1---|---3---|---3---|---3---|---3---|---0---|---3---|
E |---3---|---2---|---0---|---0---|---0---|---2---|---2---|---3---|---0---|---2---|
C |---2---|---2---|---2---|---1---|---0---|---2---|---2---|---3---|---1---|---2---|
G |---0---|---2---|---0---|---0---|---2---|---2---|---3---|---2---|---0---|---1---|



INTRO

    G           Bm7              G6          Am  D7
A |-8-7-5-----8---9---5-------7--5-5-------7-7----9----------
E |-5-----8-5----10-----8-5------5---8-5-----8---10----------
C |-5------------11---------5----5-------5---9----9----------
G |-5--------------------------------------------------------

    G           Bm7              G6          Am  D7
A |-8-7-5-----8---9---5-------7--5-5-------7-7----9----------
E |-5-----8-5----10-----8-5------5---8-5-----8---10----------
C |-5------------11---------5----5-------5---9----9----------
G |-5--------------------------------------------------------


G                         Bm7                       G6
Hold me close and hold me fast, the magic spell you cast

        Bbdim     Am        D7
This is la vie en rose

Am                      D7                           Am
When you kiss me heaven sighs, and though I close my eyes

D7      D7#5     G
I see la vie en rose

G                         Bm7                   G6
When you press me to your heart, I’m in a world apart

  G7                 C
A world where roses bloom

Cm6                         G
And when you speak, angels sing from above

A7                      Am         D7    D7b5
Everyday words seems to turn in to love… songs

G                          Bm7                       Am
Give your heart and soul to me, and life will always be         

   D7      G
La vie en rose

Suggest correction
Give kudos to tab author, rate the tab!
1 2 3 4 5
comments
print report bad tab
guest
You may want to rate the tab now too:
select rating
Wanna post a correction for this tab? Suggest correction