Oops, an error
Loading. Please wait.

New Song bass

514 views 15 this week
no commentswrite comment
1 2 3 4 5
3 more votes to show rating
add to favorites
×
Save as Personal and add changes to this tab that will be seen only by you. Learn more ›
×
You can save this tab as Personal to edit and correct it or add notes. All changes will be seen only by you. Learn more »
launch autoscroll
font size
0
reset
guitar tuner
edit
Autoscroll
slow
fast
+/-
esc
set tempo
stop
Author
Difficulty
-------------------------------------------------------------------------------
			     NEW SONG - Howard Jones
-------------------------------------------------------------------------------

Tabbed By : Kevin Croner (Kevin2407)
E-mail: kevincroner@hotmail.com

Tuning: Standard


Bass comes in on the first chorus around 0:50 (Don't crack up...)

A

                         -------- play twice -------
G|----------------------|---------------------------|------------------------|
D|---3--5-------5----p--|----------5--------5----p--|------------------------|
A|-----------3-----7-5--|----h-3---------------7-5--|---------------------3~-|
E|3---------------------|3--35-----------3----------|-1~-----3~-----5~-------|
                                                      throw  mental chains

B

G|----------------------------------------|
D|----------------------------------------| 
A|------3------h-p--------3-3------p---p--|
E|3--3-------3-5-3---3-3-------3-5-3-5-3--|    


C

G|----------------------|
D|----------------------|  There are some changes in the rhythm
A|3-----------3---------|  just listen to the song and you'll
E|---------5--------553-|  get the hang of it. 


D

G|----------------------------------------|
D|----------------------------------------| This is B, just everything
A|------0------h-p--------0-0------p---p--| set 3 frets down.
E|0--0-------0-2-0---0-0-------0-2-0-2-0--| 


E

G|----------------------------------------|
D|----------------------------------------|
A|3--------h3-----------3-----------------|
E|--------35---------5-------0-3-5-----5\-|

G|----------------------------------------|
D|----------------------------------------|
A|3----------3----------------------------|
E|-------3-5------5\--5-5----0-3-5-5---5--|


F

G|----------------------------------------|
D|----------------------------------------| 
A|------3------h-p-------33------33-------|
E|3--3-------3-5-3------3-----------------| 


G

G|----------------------------------------|
D|----------------------------------------| 
A|------3------h-p---------33-------------|
E|3----------3-5-3------3-----3-55-3--5-3-| 


H

G|----------------------------------------|
D|----------------------------------------| Same here, G set 3 frets down.
A|------0------h-p---------00-------------|
E|0----------0-2-0------0-----0-22-0--2-0-| 



Order:

A x1
B x3
A x1
C x4
A x1
B x3
D x2
B x2
A x1
B x1
E x2
A x1
F x1
G x4
H x2
G x4 (fade out)


| /  slide up
| \  slide down
| h  hammer-on
| p  pull-off
| v  vibrato
| ~  hold note
| +  harmonic
| x  mute note
===============================================================================

            
            
Suggest correction
Creating personal tab
Creating personal tab
You can edit any tab online and save it as your Personal.

You can edit, replace or remove any tab part or add personal notes – all changes will be seen only by you.

Personal tabs can be accessed anytime from any device, even offline.
Learn more »
Give kudos to tab author, rate the tab!
1 2 3 4 5
comments
print report bad tab
guest
You may want to rate the tab now too:
select rating
Wanna post a correction for this tab? Suggest correction