Oops, an error
Loading. Please wait.

Rohan Tab

version 2
version 2

Whole song

Interactive

13,026 views 123 this week
no commentswrite comment
1 2 3 4 5
x 10
add to favorites
launch autoscroll
font size
0
reset
how to read this tab
guitar tuner
Autoscroll
slow
fast
+/-
esc
set tempo
stop
Difficulty
novice
Rohan                                       
The Lord Of The Rings
Howard Shore


     Q    E  E  Q    Q       H        H           H        H         
e|-----------------------|--------------------|--------------------|
B|------------------1----|--0--------1--------|--3-----------------|
G|-------2--2--2---------|--------------------|-----------2--------|
D|-----------------------|--------------------|--0-----------------|
A|--0--------------------|--------------------|--------------------|
E|-----------------------|--------------------|--------------------|


    W                     H        H           H        H         
e|--------------------||-----------0--------|--2--------5--------|
B|--------------------||--0-----------------|--------------------|
G|--L----------------*||--------------------|--------------------|
D|-------------------*||--------------------|--0-----------------|
A|--------------------||--------------------|--------------------|
E|--------------------||--------------------|--------------------|


    W                     H        H           H        H         
e|--L-----------------||--------------------|--------------------|
B|--------------------||--0--------1--------|--3-----------------|
G|-------------------*||--------------------|-----------2--------|
D|-------------------*||--------------------|--0-----------------|
A|--------------------||--------------------|--------------------|
E|--------------------||--------------------|--------------------|


    W                   H        H           H.           Q     
e|-------------------|--7-----------------|--------------------|
B|-------------------|-----------8--------|--7------------8----|
G|--L----------------|--------------------|--------------------|
D|-------------------|--------------------|--------------------|
A|-------------------|--------------------|--------------------|
E|-------------------|--0-----------------|--------------------|


    H        H           W                   Q    E  E  Q    Q     
e|--------------------|-------------------|-----------------------|
B|--8-----------------|-------------------|------------------1----|
G|-----------9--------|--L----------------|-------2--2--2---------|
D|--------------------|-------------------|--2--------------------|
A|--------------------|-------------------|--0--------------------|
E|--8-----------------|-------------------|-----------------------|


    H        H           H        Q    Q       Q    H        Q     
e|--------------------|---------------------|---------------------|
B|--0--------1--------|--3------------------|---------------------|
G|--------------------|--2--------2---------|--2----0--------2----|
D|--2-----------------|----------------4----|---------------------|
A|--0-----------------|--5------------------|---------------------|
E|--------------------|---------------------|---------------------|


    Q    E  E  Q    Q       H        H           H        Q    Q     
e|-----------------------|-----------0--------|--2--------5---------|
B|------------------1----|--0-----------------|---------------------|
G|-------2--2--2---------|--------------------|--2-------------2----|
D|--2--------------------|--2-----------------|--0--------0---------|
A|--0----------0---------|--0--------0--------|---------------------|
E|-----------------------|--------------------|---------------------|


    Q    Q    Q    Q       Q    Q    Q    Q       Q    Q    Q    E  E   
e|-----------------7----|--7---------3---------|-----------------7--8--|
B|--3---------3---------|--0-------------------|------------0----------|
G|-------2--------------|--0----0---------0----|-------0---------------|
D|----------------------|----------------------|-----------------------|
A|----------------------|----------------------|-----------------------|
E|----------------------|--0-------------------|--0--------------------|


     Q    Q    Q    Q       Q    Q    Q     Q        Q     Q     Q     Q     
e|--10---------5---------|-----------------12----|--12----------------------|
B|-----------------------|-----------------------|--------------------------|
G|-----------------------|------------7----------|--------------------------|
D|--------7---------7----|-------7---------------|--------------10----------|
A|---5-------------------|--5--------------------|--------10----------10----|
E|-----------------------|-----------------------|---8----------------------|


    H         H            Q    Q    Q.     E     Q    H.            
e|--8--------12--------|--12-------------------|--------------------|
B|---------------------|---0-------------------|--------------------|
G|---------------------|--------0-----------0--|--0-----------------|
D|---------------------|-------------4---------|-------2------------|
A|---------------------|-----------------------|--3-----------------|
E|--8------------------|---0-------------------|--------------------|


    Q    H        E  S S    Q    H.              Q    H.            
e|-------3--------L--5-3-|--------------------|--0----7------------|
B|-----------------------|--7-----------------|--------------------|
G|--5--------------------|-------7------------|--------------------|
D|--5--------------------|--------------------|--------------------|
A|--3--------------------|--5-----------------|--------------------|
E|-----------------------|--------------------|--0-----------------|


     Q    H        E  S S    Q    H.                Q    H.              
e|--------3--------L--5-3-|---------------------||-------5-------------||
B|------------------------|--7------------------||--7------------------||
G|*--5--------------------|-------7------------*||--------------------*||
D|*--5--------------------|--------------------*||--------------------*||
A|---3--------------------|--5------------------||--5------------------||
E|------------------------|---------------------||---------------------||


    Q    H.              Q    Q    Q.     E     Q    H.            
e|--------------------|--7----3----2------3--|--3----0------------|
B|--7-----------------|----------------------|--------------------|
G|-------7------------|----------------------|--------------------|
D|--------------------|----------------------|--------------------|
A|--5-----------------|----------------------|--3-----------------|
E|--------------------|--0-------------------|--------------------|


    Q    E  E  Q    Q       H        H           H        Q    E  E   
e|-----------------------|--------------------|----------------------|
B|------------------1----|--0--------1--------|--3--------0----1--0--|
G|-------2--2--2---------|--------------------|----------------------|
D|-----------------------|--------------------|--0-------------------|
A|--0--------------------|--------------------|----------------------|
E|-----------------------|--------------------|----------------------|


    W                  
e|-------------------||
B|-------------------||
G|--2----------------||
D|--2----------------||
A|--0----------------||
E|-------------------||


************************************

| *  Natural harmonic
| L  tied note 
|(n) ghost note  

************************************
Suggest correction
comments
print report bad tab
guest
You may want to rate the tab now too:
select rating
Wanna post a correction for this tab? Suggest correction