Oops, an error
Loading. Please wait.

Collide Tab

version 1
version 1

Acoustic

Whole song

Interactive

Video

88,434 views 18 this week
10 commentsread comments
1 2 3 4 5
x 37
add to favorites
launch autoscroll
font size
0
reset
how to read this tab
guitar tuner
Autoscroll
slow
fast
+/-
esc
set tempo
stop
Help us to improve Ultimate-Guitar.com Take our survey!
×
Author
#----------------------------------PLEASE NOTE---------------------------------#
#This file is the author's own work and represents their interpretation of the #
#song. You may only use this file for private study, scholarship, or research. #
#------------------------------------------------------------------------------#


Song: COLLIDE
Artist: Howie Day
Tabbed by: Louie A. Ebojo
From: ebbskyz@yahoo.com


Tuning: Original key is B. tune your guitar down a half-note step lower
	i.e. Eb Ab Db Gb Bb Eb


Chords: EbAbDbGbBbEb

C	x32010		legend:
C/B	x2x010		h – hammer on
Am	x02210
Am7	x02010
FM7	xx3210
G	320003


Intro: C-C/B-Am7-FM7-; (2x)

        C	C/B	Am7	 FM7
Eb|-----0-------0-------0-------0---0-----|
Bb|-----1-------1-------1-------1---1-----|
Gb|-----0-------0-------0-------2-0h2-----| 2x (this is the pattern all
Db|-----2-------x-------2-------3---3-----|     through out the song)
Ab|-----3-------2-------0-------x---x-----|
Eb|-----x-------x-------x-------x---x-----|

C            C/B     Am7
The dawn is breaking
                 FM7    C
A light shining through;
               C/B    Am7
You're barely waking,
                      FM7
And I'm tangled up in you, yeah.
Yeah


Interlude: C-C/B-Am7-FM7-;
	    Doot do do do…


C                  C/B  Am7
I'm open, you're closed
                   FM7
Where I follow, you'll go;
C          C/B            Am7
I worry I won't see your face
FM7
Light up again.

          C               C/B
Even the best fall down sometimes
          Am7                 FM7
Even the wrong words seem to rhyme
             C                 C/B
Out of the doubt that fills my mind
     Am7       FM7         C
I somehow find you and I collide.


Interlude: C-C/B-Am7-FM7-;
	    Doot do do do…

C            C/B   Am7
I'm quiet you know,
            FM7              C
You make a first impression;
                Am7
I've found I'm scared to know
                    FM7
I'm always on your mind.

          C               C/B
Even the best fall down sometimes,
          Am7              FM7
Even the stars refuse to shine,
            C                C/B
Out of the back you fall in time,
    Am7        FM7        (Bridge chord pattern)
I somehow find you and I collide.


Bridge:

            Am         FM7          G
Eb|---------------------------------x----|
Bb|-----------1----------------1----0----|
Gb|-----------------------(2)-------0----| (pause)
Db|------2--------2----3------------0----|
Ab|---0-----------------------------x----|
Eb|---------------------------------3----|

	Don't stop here…


            Am         FM7          G
Eb|---------------------------------x----|
Bb|-----------1----------------1----0----|
Gb|-----------------------(2)-------0----| (pause)
Db|------2--------2----3------------0----|
Ab|---0-----------------------------x----|
Eb|---------------------------------3----|

	I’ve lost my place…


            Am         FM7          G
Eb|---------------------------------x----|
Bb|-----------1----------------1----0----|
Gb|-----------------------(2)-------0----| (pause)
Db|------2--------2----3------------0----|
Ab|---0-----------------------------x----|
Eb|---------------------------------3----|

	I’m close behind…


Interlude: C-C/B-Am7-FM7-; (2x)
	    Doot do do do…


          C               C/B
Even the best fall down sometimes,
           Am7                FM7
Even the wrong words seem to rhyme,
            C                     C/B
Out of the doubt that fills your mind
     Am7          FM7        C    C/B
You finally find you and I collide.
				(Doot do do do…)

     Am7          FM7        C    C/B
You finally find you and I collide.
				(Doot do do do…)

     Am7          FM7        (outro)
You finally find you and I collide.

Outro: C-C/B-Am7-FM7-; (2x) C
	Doot do do do…


Thank you nyk!
Suggest correction
comments
print report bad tab
10 comments total. Showing first comments.
0 reply
Mr Willy 10 Jan 20, 2006 02:20 AM

the intro isnt ment to be like that... it should be

--3-3-3-3-3----3-3-3-3-3----3-3-3-3-3----3-3-3-3-3-
--3-3-3-3-3----3-3-3-3-3----3-3-3-3-3----3-3-3-3-3-
--0-0-0-0-0----2-2-2-2-2----0-0-0-0-0----0-0-0-0-0-
--0-0-0-0-0----0-0-0-0-0----2-2-2-2-2----2-2-2-2-2-
--2-2-2-2-2----0-0-0-0-0----2-2-2-2-2--3-3-3-3-3-3-
3-3-3-3-3-3--2-2-2-2-2-2--0-0-0-0-0-0--------------

but yeah thats it, good work other wise

0 reply
Baruch 42 Jan 20, 2006 10:17 AM

Acoustic? Where did you pull this from? It sounds nothing like the song, and it's in the wrong key.

0 reply
CMJPEC 239 Jan 20, 2006 11:53 AM

^ He has it tuned down so that the notes like C can sound some what like a G or a Cadd9 chord

I think this is a little low though still...eh theres better ones ot there no offense, i think most peopel are pretty happy playing the riff that Willy posted

guest
You may want to rate the tab now too:
select rating
Wanna post a correction for this tab? Suggest correction