Oops, an error
Loading. Please wait.

Collide Chords

version 7
version 7

Acoustic

Whole song

Interactive

Video

1,328 views 3 this week
no commentswrite comment
1 2 3 4 5
x 4
add to favorites
launch autoscroll
font size
0
reset
transpose
0
reset
simplify chords
display chords
guitar tuner
×
Best way to learn
"Collide"
Autoscroll
slow
fast
+/-
esc
set tempo
stop
Author
Difficulty
Capo
  follow
novice
4th fret
CAPO 4th Fret (but most female voices need it at 6th Fret) 
All chords relative to Capo 

Verse & Chorus Chords w/Action:

e |-------3-------3-------3------3-----------------------------------------|
B |-------3-------3-------3------3-----------------------------------------|
G |-------0-------2-------0------0-----------------------------------------|
D |-------0-------0-------2------2p 0h2 -----------------------------------|
A |-------2-------0-------2---3--3-----------------------------------------|
E |----3--3---2---2---0-- 0------x-----------------------------------------|

Bridge:

e |--------3-------------3------2------------------------------------------|
B |--------3-------------1------3------------------------------------------|
G |--------0-------------0------2------------------------------------------|
D |----2---2--------2--- 2------0------------------------------------------|
A |-2------2----3------- 3------0------------------------------------------|
E |-------- 0------------ x------ -----------------------------------------|


G                     Dsus4(no5)/F#
The dawn is breaking
Em                     C
A light shining through
G                     Dsus4(no5)/F#
You're barely waking
Em                                  C
And I'm tangled up in you
......Yeah...

G       Dsus4(no5)/F#    Em     C

G               Dsus4(no5)/F#
I'm open  you're closed
Em                      C
Where I follow, you'll go
G               Dsus4(no5)/F#
I worry I won't see your
Em        C
Face....Light up again

                G                        Dsus4(no5)/F#           
Even the best fall down sometimes
                Em                                   C
Even the wrong words seem to rhyme
                   G                      Dsus4(no5)/F#
Out of the doubt that fills my mind
             Em      
I somehow find....
              C
  You and I collide


G                                     Dsus4(no5)/F#
Do doot do do doot... Do doot do do doot
Em                                  C
Do doot do do doot... Do doot do do doot


G                      Dsus4(no5)/F#
I'm quiet you know
Em                    C
You make a first impression
G                   Dsus4(no5)/F#
I've found I'm scared to know
             Em                             C
 I'm always on your mind


                G                        Dsus4(no5)/F#
Even the best fall down sometimes
                Em                       C
Even the stars refuse to shine
                  G                          Dsus4(no5)/F#
Out of the back you fall in time
             Em
 I finally find
            C                G                   
 You and I collide


Bridge (see above for tab)

Em      C     Dsus4(no5)/F# - let ring
                                       Don't stop here....
Em      C     Dsus4(no5)/F#
                                        I lost my way
Em      C     Dsus4(no5)/F#
                                        I'm close behind


G                                    Dsus4(no5)/F#
Do doot do do doot... Do doot do do doot
Em                                  C   
Do doot do do  doot... Do doot do do doot

                G                        Dsus4(no5)/F#
Even the best fall down sometimes
                Em                                  C
Even the wrong words seem to rhyme
                   G                                Dsus4(no5)/F#
Out of the doubt that fills your mind
            Em
You finally find
             C                          G             Dsus4(no5)/F#
 You and I .... collide

ad lib out with Chorus...

"<   >"  denote words Howie throws in occasionally live (ghosted)
Suggest correction
comments
print report bad tab
guest
You may want to rate the tab now too:
select rating
Wanna post a correction for this tab? Suggest correction