Oops, an error
Loading. Please wait.
We have Chord Pro version of Collide.
It's the closest thing you can get to the original song and it has interactive parts. Check out the tab »
×
14,632 views 6 this week
no commentswrite comment
1 2 3 4 5
1 last vote to show rating
add to favorites
launch autoscroll
font size
0
reset
guitar tuner
Autoscroll
slow
fast
+/-
esc
set tempo
stop
Howie Day
Collide
Tabbed By: Charlie (bassguitar116@yahoo.com)
Tuning: E-A-D-G

Bass comes in (0:41)

Pre-Chorus
G|-------------------|
D|-------------------|
A|-2-2---------------|
E|-----2-2--4-4--0-0-|

Chorus (1:11, 2:02, 3:19)
G|----------------------------------|
D|-----11\-----11\-----11\------9\--|
A|-2-2------------------------------|
E|----------2-2-----4-4------0-0----|

(3:17) right before chorus
G|------
D|-14p13
A|------|
E|------|

Ending note (4:00)
G|--|
D|--|
A|-2|
E|--|
Suggest correction
Give kudos to tab author, rate the tab!
1 2 3 4 5
comments
print report bad tab
guest
You may want to rate the tab now too:
select rating
Wanna post a correction for this tab? Suggest correction