Oops, an error
Loading. Please wait.

Ghost Tab

version 3
version 3

Whole song

5,661 views 6 this week
no commentswrite comment
1 2 3 4 5
excellent!
x 1
add to favorites
launch autoscroll
font size
0
reset
how to read this tab
guitar tuner
Tab Pro tools
  • play this tab
  • loop segment
  • change instrument
  • show fretboard
  • metronome
Autoscroll
slow
fast
+/-
esc
set tempo
stop
Contributor
Difficulty
intermediate
------------------------------------------------------------------------
			     Ghost- Howie Day
------------------------------------------------------------------------
Tabbed by: Jeff Fletcher
Email: mlbhr037@aol.com

Tuning: Standard

	This Tab is for setting up the loop with the Line 6 DL4 Modular pedal, I can’t really
you the part where he hits his guitar to make the percussion part but ill show you
else including the E-Bow part. Ive never done this before so bare with me. And I found 
the easiest thing to do once you have the chords is go to youtube and find one of his live
of Ghost and get the timing down like that. If you have the Line 6 DL4 Pedal you wanna 
the delay in between 2 and 3 o’clock, and the Repeat setting at about 10 or 11 o’clock.


	This part is right after you make the percussion loop with your guitar.


e|-----11-12/----11-7\7/------------------------------------------------|
B|----------------------------------------------------------------------|
G|----------------------------------------------------------------------|
D|----------------------------------------------------------------------|
A|----------------------------------------------------------------------|
E|----------------------------------------------------------------------|

	This is the E-bow part, this part is played right about 7 seconds after you play the
note in the part before. When playing this part make sure you keep your finger pressed
on the B string and just slide it to each note.


e|----------------------------------------------------------------------|
B|---14-16-17-12-10-9-7-5-2-5-7-9-7\/\/\--------------------------------|
G|----------------------------------------------------------------------|
D|----------------------------------------------------------------------|
A|----------------------------------------------------------------------|
E|----------------------------------------------------------------------|

	Ok Now for the Chords, The first chord is played right when the E-bow starts on the
im not to sure what the chords are called I just play them, but ill show you exactly how to
them.

 	Played during the entire song except for the Chorus. Once again watch or listen to the
and get the timing.

    C#m        E
e|----------------------------------------------------------------------|
B|---5------------------------------------------------------------------|
G|---6----6----1--------------------------------------------------------|
D|---6----7----2--------------------------------------------------------|
A|---4----7----2--------------------------------------------------------|
E|---4----5-------------------------------------------------------------|


	These are the chords for the Chorus Lyrics: “No i wanna taste your love, no i no i no i
taste your love oooooooo.”

e|----------------------------------------------------------------------|
B|---5---------------5--------------------------------------------------|
G|---6----6-----8----6----6----1----------------------------------------|
D|---6----7-----9----6----7----2----------------------------------------|
A|---4----7-----9----4----7----2----------------------------------------|
E|---4----5-----7----4----5---------------------------------------------|

	Ok now that you have the chords down, in the live performance of ghost he usually does
outro of beams of light, this picking part is for the end of the song. The number above
note is how many times you play that note. Im 99% sure that’s how many times you pluck 
Once you have that loop set just start the verse chords again and your set.


       8x  1x 4x 1x 6x 1x  5x 6x 1x  4x  1x 6x 1x  1x

e|-----12--11--9--7\9---7---5\7---5---4---2\4---2---0-------------------|
B|----------------------------------------------------------------------|
G|----------------------------------------------------------------------|
D|----------------------------------------------------------------------|
A|----------------------------------------------------------------------|
E|----------------------------------------------------------------------|


| /  slide up
| \  slide down
| h  hammer-on
| p  pull-off
| ~  vibrato
| +  harmonic
| x  Mute note
========================================================================
comments
We did not receive enough feedback on this tab! Please rate:
print report bad tab
1 2 3 4 5
I want to post or [tab]
guest
You may want to rate the tab now too:
select rating
Please do not post tabs as comments. Select "correction" instead!