Oops, an error
Loading. Please wait.

Morning After Bass Tab

266 views 1 this week
no commentswrite comment
1 2 3 4 5
please rate
add to favorites
launch autoscroll
font size
0
reset
guitar tuner
Tab Pro tools
  • play this tab
  • loop segment
  • change instrument
  • show fretboard
  • metronome
×
Best way to learn
"Morning After"
Autoscroll
slow
fast
+/-
esc
set tempo
stop
Contributor
Difficulty
novice
easy bass line. awesome song though, nothing compares to howie! go buy is album


verse
---------------------------------(5)----------|
--------(7)---------(3)-------------------(5)-|
------------------------3---33----------------|
--5---55-----1---11---------------3----333----|

prechorus/chorus/breakdown
----------------------------------------------|
----------------------------------------------|
------------------------3---33----------------|
-0--00-------1---11---------------3-----333---|

(btw the (numbers) are just octaves to make it more fun. ignore them at
first and then try to fit in diff stuff :)
comments
We did not receive enough feedback on this tab! Please rate:
print report bad tab
1 2 3 4 5
I want to post or [tab]
guest
You may want to rate the tab now too:
select rating
Please do not post tabs as comments. Select "correction" instead!