Oops, an error
Loading. Please wait.

Back Of Your Neck chords

version 2
version 2

Whole song

by Howler
10 views 1 this week
no commentswrite comment
1 2 3 4 5
3 more votes to show rating
add to favorites
×
Save as Personal and add changes to this tab that will be seen only by you. Learn more ›
×
You can save this tab as Personal to edit and correct it or add notes. All changes will be seen only by you. Learn more »
launch autoscroll
font size
0
reset
transpose
0
reset
display chords
guitar tuner
edit
Autoscroll
slow
fast
+/-
esc
set tempo
stop
Strumming
There is no strumming pattern for this song yet. and get +5 IQ
Bm  - 799877
G#m - 466444
Em  - 079987

[Intro]

E|-------7----7----7----7--7-------7----7----7----7--7-7|
B|----7----7----7----7-----7----7----7----7----7-----7-7|
G|----7p8--7p8--7p8--7p8---8----7p8--7p8--7p8--7p8---8-8|
D|-------------------------9-------------------------9-9|
A|-------------------------9-------------------------9-9|
E|-------------------------7-------------------------7-7|

E|-------7----7----7----7--7-------7----7----7----7------|
B|----7----7----7----7-----7----7----7----7----7---------|
G|----7p8--7p8--7p8--7p8---8----7p8--7p8--7p8--7p8-------|
D|-------------------------9-----------------------3-5-7-|
A|-------------------------9-----------------------3-5-7-|
E|-------------------------7-----------------------1-3-5-|

Bm G#m Em (2x)

E|---14-11-9-11-9------14-11-9-11-9--------7-7-7-7-7-7-7-|
B|-12------------11--12------------9--7-9--8-8-8-8-8-8-8-|
G|-----------------------------------------9-9-9-9-9-9-9-|
D|-----------------------------------------9-9-9-9-9-9-9-|(2x)
A|-----------------------------------------7-7-7-7-7-7-7-|
E|-------------------------------------------------------|

[Verse 1]
Bm                   G#m
Steal a car on a dare
                          Em
Dump it in the minow river
Em
You think we're Bonnie and Clyde
                             Bm
But both of them fucking died
                     G#m
I think you're mid july
                              Em
Smoke you in hot as a crack pipe
Em
I wanna love you but we just fun
                                   B
I know you kill me, and that's not right
                            G#m
Pretend that you can hold a gun
                                        Em
And I will pretend that you're the only one
Em
I never shot it into your night
                                 Bm
Just show me how to pick your locks
                                    G#m
On the street I see you walking ahead
                                     Em
I take a picture of the back of your neck
Em
I won't do it to myself again
Em
I won't do it to myself again

[Interlude]

Bm G#m Em (2x)

E|---14-11-9-11-9------14-11-9-11-9--------7-7-7-7-7-7-7-|
B|-12------------11--12------------9--7-9--8-8-8-8-8-8-8-|
G|-----------------------------------------9-9-9-9-9-9-9-|
D|-----------------------------------------9-9-9-9-9-9-9-|(2x)
A|-----------------------------------------7-7-7-7-7-7-7-|
E|-------------------------------------------------------|


E|-------7----7----7----7--7-------7----7----7----7--7-7|
B|----7----7----7----7-----7----7----7----7----7-----7-7|
G|----7p8--7p8--7p8--7p8---8----7p8--7p8--7p8--7p8---8-8|
D|-------------------------9-------------------------9-9|
A|-------------------------9-------------------------9-9|
E|-------------------------7-------------------------7-7|

E|-------7----7----7----7--7-------7----7----7----7------|
B|----7----7----7----7-----7----7----7----7----7---------|
G|----7p8--7p8--7p8--7p8---8----7p8--7p8--7p8--7p8-------|
D|-------------------------9-----------------------3-5-7-|
A|-------------------------9-----------------------3-5-7-|
E|-------------------------7-----------------------1-3-5-|

[Solo]

E|-------------------------------------------|
B|-------------------------------------------|
G|------11--11p13--11-13-11------------------|
D|-7/13---13----------------13---9---6-6-6-4-|
A|-------------------------------------------|
E|-------------------------------------------|

E|----------------------------7-7-7-7-7------|
B|-----------12-12/16-14-12-9-8-8-8-8-8------|
G|-----11--13-----------------9-9-9-9-9------|
D|-7/13--13----------------------------------|
A|-------------------------------------------|
E|-------------------------------------------|

[Verse 2]
Bm                                 G#m
I see you bend down matching a grave
                                  Em
But that's a very grave thing to say
Em
Out of place, out of take
                       Bm
Maybe this is all a mistake
                        G#m
So this devil in me is you
                         Em
This talk is a kind of glue
Em
A black mass, a sick stab
                         Bm
Something that I didn't choose

[Interlude]

E|-7~--4~--7~--|
B|-7~--4~--8~--|
G|-8~--5~--9~--|
D|-9~--6~--9~--| (2x)
A|-9~--6~--7~--|
E|-7~--4~------|

[Outro]

Bm G#m Em (2x)

E|---14-11-9-11-9------14-11-9-11-9--------7-7-7-7-7-7-7-|
B|-12------------11--12------------9--7-9--8-8-8-8-8-8-8-|
G|-----------------------------------------9-9-9-9-9-9-9-|
D|-----------------------------------------9-9-9-9-9-9-9-|(2x)
A|-----------------------------------------7-7-7-7-7-7-7-|
E|-------------------------------------------------------|


E|-------7----7----7----7--7-------7----7----7----7--7-7|
B|----7----7----7----7-----7----7----7----7----7-----7-7|
G|----7p8--7p8--7p8--7p8---8----7p8--7p8--7p8--7p8---8-8|
D|-------------------------9-------------------------9-9|
A|-------------------------9-------------------------9-9|
E|-------------------------7-------------------------7-7|

E|-------7----7----7----7--7-------7----7----7----7--7-7|
B|----7----7----7----7-----7----7----7----7----7-----7-7|
G|----7p8--7p8--7p8--7p8---8----7p8--7p8--7p8--7p8---8-8|
D|-------------------------9-------------------------9-9|
A|-------------------------9-------------------------9-9|
E|-------------------------7-------------------------7-7|

            
            
Suggest correction
Creating personal tab
Creating personal tab
You can edit any tab online and save it as your Personal.

You can edit, replace or remove any tab part or add personal notes – all changes will be seen only by you.

Personal tabs can be accessed anytime from any device, even offline.
Learn more »
Give kudos to tab author, rate the tab!
1 2 3 4 5
comments
print report bad tab
guest
You may want to rate the tab now too:
select rating
Wanna post a correction for this tab? Suggest correction