Oops, an error
Loading. Please wait.

Moanin At Midnight Tab

6,042 views 12 this week
no commentswrite comment
1 2 3 4 5
x 4
add to favorites
launch autoscroll
font size
0
reset
how to read this tab
guitar tuner
Autoscroll
slow
fast
+/-
esc
set tempo
stop
Help us to improve Ultimate-Guitar.com Take our survey!
×
Author
Difficulty
novice
"Moanin' at Midnight" by Howlin Wolf

This is kind of a tough one to tab. If it is not correct, I think 
It is at least pretty close.

e|----------------------------------------| R
B|---------------------------------------o| E
G|----------------------------------------| P
D|----------------------------------------| E
A|------6h7--------7----6h7--------7-----o| A
E|----7------7--0-----7------7--0---------| T

Slight variation
e|----------------------------------------| R
B|---------------------------------------o| E
G|----------------------------------------| P
D|----------9----------------9------------| E
A|------6h7-7-------7----6h7-7-------7---o| A
E|----7-------7--0-----7-------7--0-------| T

The beauty of this song is the minimalism of it. This one riff just gets
played over and over and over. Listen to the song for the variation.
Please rate and comment.
Suggest correction
comments
print report bad tab
guest
You may want to rate the tab now too:
select rating
Wanna post a correction for this tab? Suggest correction