Oops, an error
Loading. Please wait.

Blessed Night Bass Tab

315 views 1 this week
no commentswrite comment
1 2 3 4 5
2 more votes to show rating
add to favorites
launch autoscroll
font size
0
reset
guitar tuner
Autoscroll
slow
fast
+/-
esc
set tempo
stop
Help us to improve Ultimate-Guitar.com Take our survey!
×
Author
Band - Howling Bells
Song - Blessed Night
Album - Howling Bells
Track - 10
Bassist - Brendan Picchio
www.howlingbells.com

Verse 1 (0:25)
G---------------------------------|
D---------------------------------|
A---------------------------------|
E-4-4-4-4-4-4-4-4-4-4-4-4-4-2-2-0-| x2

G---------------------------------|
D---------------------------------|
A-2-2-2-2-2-2-2-2-4-4-4-4-4-2-----|
E-----------------------------2-0-| x1

G-----------------------------6---|
D---------------------------6-----|
A-------------------------------4-|
E-4-4-4-4-4-4-4-4-4-4-4-4-4-------| x1

Instrumental Part 1
G---------------------------------|
D---------------------------4-4---|
A---------------------------------|
E-4-4-4-4-4-4-4-4-4-4-4-4-4-----2-| x2

G---------------------------------|
D---------------------------4-4---|
A-2-2-2-2-2-2-2-2-0-0-0-0-0-------|
E-------------------------------2-| x1

G---------------------------------|
D---------------------------4-4---|
A---------------------------------|
E-4-4-4-4-4-4-4-4-4-4-4-4-4-----2-| x1

Verse 2
G---------------------------------|
D---------------------------------|
A---------------------------------|
E-4-4-4-4-4-4-4-4-4-4-4-4-4-2-2-0-| x2

G---------------------------------|
D---------------------------------|
A-2-2-2-2-2-2-2-2-4-4-4-4-4-2-----|
E-----------------------------2-0-| x1

G---------------------------------|
D---------------------------------|
A---------------------------------|
E-4-4-4-4-4-4-4-4-4-4-4-4-4-2-2-0-| x1

G---------------------------------|
D-----------------------------2-4-|
A-2-2-2-2-2-2-2-2-0-0-0-0-0-4-----|
E---------------------------------| x1

G---------------------------------|
D---------------------------4-4---|
A---------------------------------|
E-4-4-4-4-4-4-4-4-4-4-4-4-4-----2-| x1

Chorus 1
G---------------------------------|
D---------------------------4-4-2-|
A---------------------------------|
E-4-4-4-4-4-4-4-4-4-4-4-4-4-------| x1

G---------------------------------|
D-6-6-6-6-6-6-6-6-6-6-6-6-6-4-2-4-|
A---------------------------------|
E---------------------------------| x1

G---------------------------------|
D-2-2-2-2-2-2-2-2-2-2-2-2-2-2-2-2-|
A---------------------------------|
E---------------------------------| x1

G---------------------------------|
D---------------------------4-4---|
A---------------------------------|
E-4-4-4-4-4-4-4-4-4-4-4-4-4-----2-| x1

Verse 3
G---------------------------------|
D---------------------------------|
A---------------------------------|
E-4-4-4-4-4-4-4-4-4-4-4-2-4-2-2-0-| x2

G---------------------------------|
D---------------------------------|
A-2-2-2-2-2-2-2-2-4-4-4-4-4-2-----|
E-----------------------------2-0-| x1

G---------------------------------|
D---------------------------------|
A---------------------------------|
E-4-4-4-4-4-4-4-4-4-4-4-4-4-2-2-0-| x1

G---------------------------------|
D---------------------------4-4---|
A-2-2-2-2-2-2-2-2-0-0-0-0-0-------|
E-------------------------------2-| x1

G---------------------------------|
D---------------------------4-4---|
A---------------------------------|
E-4-4-4-4-4-4-4-4-4-4-4-4-4-----2-| x1

Chorus 2
G---------------------------------|
D---------------------------4-4-2-|
A---------------------------------|
E-4-4-4-4-4-4-4-4-4-4-4-4-4-------| x1

G---------------------------------|
D-6-6-6-6-6-6-6-6-6-6-6-6-6-4-2-4-|
A---------------------------------|
E---------------------------------| x1

G---------------------------------|
D-2-2-2-2-2-2-2-2-2-2-2-2-2-2-2-2-|
A---------------------------------|
E---------------------------------| x1

G---------------------------------|
D---------------------------4-4---|
A---------------------------------|
E-4-4-4-4-4-4-4-4-4-4-4-4-4-----2-| x1

Bridge
G---------------------------------|
D---------------------------------|
A---------------------------------|
E-4~~~~~----------4~~~~-----------| x1

G---------------------------------|
D---------------------------4-4---|
A-7~~~~~--------------------------|
E-----------------4~~~~---------2-| x1

Instrumental Part 2
G---------------------------------|
D---------------------------4-4---|
A---------------------------------|
E-4-4-4-4-4-4-4-4-4-4-4-4-4-----2-| x2

G---------------------------------|
D---------------------------------|
A---------------------------------|
E-0-0-0-0-0-0-0-0-0-0-0-0-0-0-0-0-| x1

G---------------------------------|
D---------------------------------|
A---------------------------------|
E-4-4-4-4-4-4-4-4-4-4-4-4-4-4-4-4-| x1

Final Chorus
G---------------------------------|
D-6-6-6-6-6-6-6-6-6-6-6-6-6-4-2-4-|
A---------------------------------|
E---------------------------------| x2

G---------------------------------|
D-2-2-2-2-2-2-2-2-2-2-2-2-2-2-2-2-|
A---------------------------------|
E---------------------------------| x1

G---------------------------------|
D---------------------------------|
A---------------------------------|
E-4~~~~~~-------------------------| x1
Suggest correction
Give kudos to tab author, rate the tab!
1 2 3 4 5
comments
print report bad tab
guest
You may want to rate the tab now too:
select rating
Wanna post a correction for this tab? Suggest correction