Oops, an error
Loading. Please wait.

Digital Hearts Bass Tab

109 views 1 this week
no commentswrite comment
1 2 3 4 5
please rate
add to favorites
launch autoscroll
font size
0
reset
guitar tuner
Tab Pro tools
  • play this tab
  • loop segment
  • change instrument
  • show fretboard
  • metronome
×
Best way to learn
"Digital Hearts"
Autoscroll
slow
fast
+/-
esc
set tempo
stop
Contributor
Difficulty
novice
---------------------------------------------------------------
DIGITAL HEARTS - Howling Bells
---------------------------------------------------------------

Tabbed By : THFT

Tuning: EADG (Standard)

SYMBOLS
h - hammer on
p - pull off
b - bend string up
r - release bend
/ - slide up
\ - slide down
~ - vibrato
t - tap (with strumming hand)
x - muted, struck string
m - muted, not struck

INTRO				    x2
G|------------------------------------|
D|------------------------------------|
A|--8-8-8-8-8-8-8-8--5-5-5-5-5-5-5-5--|
E|------------------------------------|

						     x1
G|-----------------------------------------------------|
D|-----------------------------------------------------|
A|--8-8-8-8-/12-12-12-12--10-10-10-10-/15-15-15-15--5--|
E|-----------------------------------------------------|


VERSE 1		     x2
G|---------------------|
D|---------------------|
A|--8----3---5--5-5-7--|
E|-----5---5-----------|

			       x1
G|-------------------------------|
D|-------------------------------|
A|--8----3-/10--10-8-10-8--------|
E|-----5------------------10-10--|

		     x2
G|---------------------|
D|---------------------|
A|--8----3---5--5-5-7--|
E|-----5---5-----------|

			       x1
G|-------------------------------|
D|-------------------------------|
A|--8----3-/10--10-8-10-8--------|
E|-----5------------------10-10--|


BRIDGE 1			    x2
G|------------------------------------|
D|------------------------------------|
A|--8-8-8-8-8-8-8-8--5-5-5-5-5-5-5-5--|
E|------------------------------------|

						     x1
G|-----------------------------------------------------|
D|-----------------------------------------------------|
A|--8-8-8-8-/12-12-12-12--10-10-10-10-/15-15-15-15--5--|
E|-----------------------------------------------------|


VERSE 2		     x2
G|---------------------|
D|---------------------|
A|--8----3---5--5-5-7--|
E|-----5---5-----------|

							   x1
G|-----------------------------------------------------------|
D|-----------------------------------------------------------|
A|--8----3-/10--10-8-10-8------------------------------------|
E|-----5------------------10-8-6-/13-13-13-13-15--12--10--8--|


CHORUS 1
G|--------------------------------------------------------|
D|--------------------------------------------------------|
A|--8-8-8-8-8-8-8-8-8-8-8-8-8-8-8-8-13-13-13-13-13-13-13--|
E|--------------------------------------------------------|

G|---------------------------------------------------------|
D|---------------------------------------------------------|
A|---------------------------------------------------------|
E|--5-5-5-/10--10-10-10--4-4-4-4-4-4-4-4-3-3-3-/6--6-6-6-6-|

G|------------------------------------------------------------|
D|------------------------------------------------------------|
A|--8-8-8-8-8-8-8-8-8p6h8-8-8-8-8-8-8-8-13-13-13-13-13-13-13--|
E|------------------------------------------------------------|
							 x1
G|---------------------------------------------------------|
D|---------------------------------------------------------|
A|-----------------------------------5-5-------------------|
E|--5-5-5-/10--10-10-10--4-4-4-4-4-4-----3-3-3-/6--6-6-6-6-|


VERSE 3		     x2
G|---------------------|
D|---------------------|
A|--8----3---5--5-5-7--|
E|-----5---5-----------|

							   x1
G|-----------------------------------------------------------|
D|-----------------------------------------------------------|
A|--8----3-/10--10-8-10-8------------------------------------|
E|-----5------------------10-8-6-/13-13-13-13-15--12--10--8--|


CHORUS 2
G|--------------------------------------------------------|
D|--------------------------------------------------------|
A|--8-8-8-8-8-8-8-8-8-8-8-8-8-8-8-8-13-13-13-13-13-13-13--|
E|--------------------------------------------------------|

G|---------------------------------------------------------|
D|---------------------------------------------------------|
A|---------------------------------------------------------|
E|--5-5-5-/10--10-10-10--4-4-4-4-4-4-4-4-3-3-3-/6--6-6-6-6-|

G|------------------------------------------------------------|
D|------------------------------------------------------------|
A|--8-8-8-8-8-8-8-8-8p6h8-8-8-8-8-8-8-8-13-13-13-13-13-13-13--|
E|------------------------------------------------------------|
							 x1
G|---------------------------------------------------------|
D|---------------------------------------------------------|
A|-----------------------------------5-5-------------------|
E|--5-5-5-/10--10-10-10--4-4-4-4-4-4-----3-3-3-/6--6-6-6-6-|


BRIDGE 2
G|---------------------------------------------------|
D|--------19-------19----19-------17-------17----17--|
A|--17-17----17-17----17----15-15----15-15----15-----|
E|---------------------------------------------------|

G|---------------------------------------------------|
D|--------15-------15----15-------12-------12----12--|
A|--13-13----13-13----13----10-10----10-10----10-----|
E|---------------------------------------------------|

G|---------------------------------------------------|
D|--------19-------19----19-------17-------17----17--|
A|--17-17----17-17----17----15-15----15-15----15-----|
E|---------------------------------------------------|

G|--------------------------------------|
D|------10-----10---10-----9-----9---9--|
A|--8-8----8-8----8----7-7---7-7---7----|
E|--------------------------------------|

G|-----------------------------------|
D|------7-----7---7-----5-----5---5--|
A|--5-5---5-5---5---3-3---3-3---3----|
E|-----------------------------------|

G|---------------------------------------------------|
D|------3-----3---3----------------------------------|
A|--1-1---1-1---1-------5-----5---5-----3-----3---3--|
E|------------------3-3---3-3---3---1-1---1-1---1----|
		   x1
G|-------------------|
D|-------------------|
A|------1-----1---1--|
E|--0-0---0-0---0----|


VERSE 4			x2
G|------------------------|
D|--8-10-8----------------|
A|---------8----3---5--5--|
E|------------5---5-------|

								  x1
G|------------------------------------------------------------------|
D|--8-10-8----------------------------------------------------------|
A|---------8----3-/10--10-8-10-8------------------------------------|
E|------------5------------------10-8-6-/13-13-13-13-15--12--10--8--|


OUTRO
G|--------------------------------------------------------|
D|--------------------------------------------------------|
A|--8-8-8-8-8-8-8-8-8-8-8-8-8-8-8-8-13-13-13-13-13-13-13--|
E|--------------------------------------------------------|

G|---------------------------------------------------------|
D|---------------------------------------------------------|
A|---------------------------------------------------------|
E|--5-5-5-/10--10-10-10--4-4-4-4-4-4-4-4-3-3-3-/6--6-6-6-6-|

G|------------------------------------------------------------|
D|------------------------------------------------------------|
A|--8-8-8-8-8-8-8-8-8p6h8-8-8-8-8-8-8-8-13-13-13-13-13-13-13--|
E|------------------------------------------------------------|
							    x1
G|------------------------------------------------------------|
D|------------------------------------------------------------|
A|-----------------------------------5-5-------------------8--|
E|--5-5-5-/10--10-10-10--4-4-4-4-4-4-----3-3-3-/6--6-6-6-6----|
comments
We did not receive enough feedback on this tab! Please rate:
print report bad tab
1 2 3 4 5
I want to post or [tab]
guest
You may want to rate the tab now too:
select rating
Please do not post tabs as comments. Select "correction" instead!