Oops, an error
Loading. Please wait.

Im Not Afraid Bass Tab

278 views 1 this week
no commentswrite comment
1 2 3 4 5
please rate
add to favorites
launch autoscroll
font size
0
reset
guitar tuner
Tab Pro tools
  • play this tab
  • loop segment
  • change instrument
  • show fretboard
  • metronome
Autoscroll
slow
fast
+/-
esc
set tempo
stop
Contributor
Band - Howling Bells
Song - I'm Not Afraid
Album - Howling Bells
Track - 12
Bassist - Brendan Picchio
www.howlingbells.com

Intro
G--------------|
D--------------|
A-0~~~~--------|
E--------------|

G------------------------|
D------------------------|
A------------------------|
E-5-----0-5-0-5---0-5----|

G------------------------|
D------------------------|
A------------------------|
E-5-----0-5---5---0-5-0--|

Verse
G------------------------|
D------------------------|
A------------------------|
E-5-----0-5-0-5---0-5-0--|

G------------------------|
D------------------------|
A------------------------|
E-5---------0-5-0-5-7-8--|

G------------------------|
D------------------------|
A---------0-2/12-7-5-8---|
E-0----------------------|

G------------------------|
D------------------------|
A------------------------|
E-------0-5-0-5---0-5-0--|

G------------------------|
D------------------------|
A------------------------|
E-------0-5-0-5---0-5-0--|

G------------------------|
D------------------------|
A------------------------|
E-------0-5-0-5---0-5-0--|

G------------------------|
D------------------------|
A------------------------|
E-5---------0-5-0-5-7-8--|

G------------------------|
D------------------------|
A---------0-2/12-7-5-8---|
E-12---------------------|

G------------------------|
D------------------------|
A------------------------|
E-------0-5-0-5----5-7-8-|

Bridge
G------------------------|
D------------------------|
A------------------------|
E-10-----------10----/13-|

G------------------------|
D------------------------|
A-12----------12---------|
E-------12--------12-13--|

G------------------------|
D------------------------|
A------------------------|
E-10-----------10--------|

Short Break

Instrumental
G------------------------------|
D------7-------7-------7-------|
A----7-------7-------7---------|
E--------5-------5-------5-7-8-|

G------------------------|
D------------------------|
A-----------2/12-7-5-8---|
E-12--8------------------|

G----------------|
D------7-------7-|
A----7-------7---|
E--------5-------|

Ending
G---------------------------------|
D---------------------------------|
A-----7-------7-------7-----------|
E-5-------5-------5------------10-|

G------------------------|
D------------------------|
A---------0-2/12-7-5-8---|
E-12---------------------|

G------------------------|
D------------------------|
A------5-7----------7----|
E-----------4-5---8------| x2

G------------------------|
D------------------------|
A------5-7~~~~~----------|
E------------------------|

G------------------------|
D-7----------------------|
A------7-----------------|
E------------5~~~~-------|
comments
We did not receive enough feedback on this tab! Please rate:
print report bad tab
1 2 3 4 5
I want to post or [tab]
guest
You may want to rate the tab now too:
select rating
Please do not post tabs as comments. Select "correction" instead!