Oops, an error
Loading. Please wait.

In The Woods Bass Tab

204 views 1 this week
no commentswrite comment
1 2 3 4 5
please rate
add to favorites
launch autoscroll
font size
0
reset
guitar tuner
Autoscroll
slow
fast
+/-
esc
set tempo
stop
Help us to improve Ultimate-Guitar.com Take our survey!
×
Author
Band - Howling Bells
Song - In The Woods
Album - Howling Bells
Track - 11
Bassist - Brendan Picchio
www.howlingbells.com

Intro
G---------------------------------|
D---------------------------------|
A---------------------------------|
E-8-8-8-8-8-8-8-8-8-8-8-8-8-8-8-8-|

G---------------------------------|
D---------------------------------|
A---------------------------------|
E-0-0-0-0-0-0-0-0-0-0-0-0-0-0-0-0-|

G-------------------------------------------------|
D-------------------------------------------------|
A-------------------------------------------------|
E-10-10-10-10-10-10-10-10-10-10-10-10-10-10-10-10-|

G---------------------------------|
D---------------------------------|
A---------------------------------|
E-8-8-8-8-8-8-8-8-8-8-8-8-8-8-8-8-|

G---------------------------------|
D---------------------------------|
A---------------------------------|
E-0-0-0-0-0-0-0-0-0-0-0-0-0-0-0-0-|

G-------------------------------------------------|
D-------------------------------------------------|
A-------------------------------------------------|
E-10-10-10-10-10-10-10-10-10-10-10-10-10~~~-------|

Verse
G---------------------------------|
D---------------------------------|
A---------------------------------|
E-8-8-8-8-8-8-8-8-8-8-8-8-8-8-8-8-|

G---------------------------------|
D---------------------------------|
A---------------------------------|
E-0-0-0-0-0-0-0-0-0-0-0-0-0-0-0-0-|

G---------------------------------|
D---------------------------------|
A---------------------------------|
E-5-5-5-5-5-5-5-5-5-5-5-5-5-5-5-5-|

G---------------------------------|
D---------------------------------|
A---------------------------------|
E-8-8-8-8-8-8-8-8-8-8-8-8-8-8-8-8-|

Repeat Verse x2

Chorus
G---------------------------------|
D---------------------------------|
A---------------------------------|
E-8-8-8-8-8-8-8-8-8-8-8-8-8-8-8-8-|

G---------------------------------|
D---------------------------------|
A---------------------------------|
E-0-0-0-0-0-0-0-0-0-0-0-0-0-0-0-0-|

G-------------------------------------------------|
D-------------------------------------------------|
A-------------------------------------------------|
E-10-10-10-10-10-10-10-10-10-10-10-10-10-10-10-10-|

G---------------------------------|
D---------------------------------|
A---------------------------------|
E-5-5-5-5-5-5-5-5-5-5-5-5-5-5-5-5-|

G---------------------------------|
D---------------------------------|
A---------------------------------|
E-8-8-8-8-8-8-8-8-8-8-8-8-8-8-8-8-|

G---------------------------------|
D---------------------------------|
A---------------------------------|
E-0-0-0-0-0-0-0-0-0-0-0-0-0-0-0-0-|

G-------------------------------------------------|
D-------------------------------------------------|
A-------------------------------------------------|
E-10-10-10-10-10-10-10-10-10-10-10-10-10-10-10-10-|

G---------------------------------|
D---------------------------------|
A---------------------------------|
E-5-5-5-5-5-5-5-5-5-5-5-5-5~~~----|

Verse x1

Verse Variation (Instrumental)
G---------------------------------|
D---------------------------------|
A---------------------------------|
E-8-8-8-8-8-8-8-8-8-8-8-8-8-8-8-8-|

G---------------------------------|
D---------------------------------|
A---------------------------------|
E-0-0-0-0-0-0-0-0-0-0-0-0-0-0-0-0-|

G----------------------------------------------|
D----------------------------------------------|
A----------------------------------------------|
E-10-10-10-10-10-10-10-10-10-10-10-10-10-7-7-7-|

Chorus x1, but last bar changes to:
G---------------------------------|
D---------------------------------|
A---------------------------------|
E-5-5-5-5-5-5-5-5-5-5-5-5-5-5-5-5-|

Ending ("Someday soon")
G---------------------------------|
D---------------------------------|
A---------------------------------|
E-8-8-8-8-8-8-8-8-8-8-8-8-8-8-8-8-|

G---------------------------------|
D---------------------------------|
A---------------------------------|
E-0-0-0-0-0-0-0-0-0-0-0-0-0-0-0-0-|

G---------------------------------|
D---------------------------------|
A---------------------------------|
E-5-5-5-5-5-5-5-5-5-5-5-5-5-7-7-7-|

G---------------------------------|
D---------------------------------|
A---------------------------------|
E-8~~~~~--------------------------|

G---------------------------------|
D---------------------------------|
A---------------------------------|
E-5~~~~~--------------------------|

G---------------------------------|
D---------------------------------|
A---------------------------------|
E-8~~~~~--------------------------|

G---------------------------------|
D---------------------------------|
A---------------------------------|
E-5~~~~~--------------------------|

G---------------------------------|
D---------------------------------|
A---------------------------------|
E-12~~~~--------------------------|

G---------------------------------|
D---------------------------------|
A---------------------------------|
E-11h12p11h12~~~---11h12p11h12~~~-| x6

G---------------------------------|
D---------------------------------|
A---------------------------------|
E-11h12p11h12~~~~~~~~-------------| x1
Suggest correction
Give kudos to tab author, rate the tab!
1 2 3 4 5
comments
print report bad tab
guest
You may want to rate the tab now too:
select rating
Please do not post tabs as comments. Select "correction" instead!