Oops, an error
Loading. Please wait.

In The Woods Tab

645 views 1 this week
no commentswrite comment
1 2 3 4 5
3 more votes to show rating
add to favorites
launch autoscroll
font size
0
reset
how to read this tab
guitar tuner
Autoscroll
slow
fast
+/-
esc
set tempo
stop
Help us to improve Ultimate-Guitar.com Take our survey!
×
Author
Difficulty
Tuning
intermediate
D A D G B E
Howling Bells
In the Woods
Song number 11 on Album 'Howling Bells'

This is tab is just the lead guitar. If you want to learn the rhythm guitar, find the 
tab for this song on the internet and use the bass notes to work out the chords. This is 
first tab, but I think it's pretty accurate.

(Note: If you are playing this song as a cover in a 2 guitar band, the lead guitar is 
Drop D, but the rhythm stays in standard tuning)

e-----------------------------------------------------------------------|
B---1p0-----------------22----------------------------------------------|
G----------0--------------------0---------------------------------------|
D--------------2--------------------2-----------------------------------|
A-----------------------------------------------------------------------|
D-----------------------------------------------------------------------|

e--------------------------------------------------------|
B--8----------88--1010b-------11/12b13--10---------------|
G--------8/9---------------------------------------------|           X2
D--------------------------------------------------------|
A--------------------------------------------------------|
D--------------------------------------------------------|

e--------------------------------------------------------------|
B---888-777-5555--8-777-555------------------------------------|
G--------------------------------------------------------------|
D--------------------------------------------------------------|            X2
A--------------------------------------------------------------|
D--------------------------------------------------------------|

e-5555555555555555------------------------------------------------|
B---------------------------8888888888888888----------------------|
G-----------------------------------------------------------------|
D-----------------------------------------------------------------|
A-----------------------------------------------------------------|
D-----------------------------------------------------------------|


e----------------------------------------|
B----------------------------------------|
G----------------------------------------|
D----------------------------------------|
A----------------------------------------|
D--2-2-2-2-/14-14-14-14------------------|  X4

e-----------------------------------------------------------|
B-----------------------------------------------------------|
G-----------------------------------------------------------|
D-----------------------------------------------------------|
A-----------------------------------------------------------|   X2
D-0-0-0-0-11/12-12-12-12------------------------------------|

e--8------3----5----8----------------------------------------------|
B--8------0----5----8----------------------------------------------|
G--9------0----6----9----------------------------------------------|
D--10----2----7----10----------------------------------------------|
A--10----2-----7-----10--------------------------------------------|
D------------------------------------------------------------------|

(Use constant alternate picking for part below)

e----------------------------------------------------------|
B--8----------88--1010b12-------11/12b13--10---------------|
G--------8/9-----------------------------------------------|
D----------------------------------------------------------|
A----------------------------------------------------------|
D----------------------------------------------------------|


e--------------------------------77777777-5/77777778877----55555555--------------------------|
B-88888888--777-88888-------------------------------------------------------8888888888888----|
G--------------------------------------------------------------------------------------------|
D--------------------------------------------------------------------------------------------|
A--------------------------------------------------------------------------------------------|
D--------------------------------------------------------------------------------------------|

e------------------------7777777---5/77777778877----5555555----------------------|
B---888-777-5555-----------------------------------------------------88888888888-|
G--------------------------------------------------------------------------------|
D--------------------------------------------------------------------------------|
A--------------------------------------------------------------------------------|
D--------------------------------------------------------------------------------|

X2

e---------------------------|
B---------------------------|
G---------------------------|
D---------------------------|
A---------------------------|
D--2-2-2-2--13/14-14-14-14--|  X4


e----------------------------------------------------------------------------|
B--8\5---8\5-----------------------------------------------------------------|
G------------------7--6--5---------------------------------------------------|
D----------------------------------------------------------------------------|
A----------------------------------------------------------------------------|
D----------------------------------------------------------------------------|


Finish with intro.


Intro
Lead bending
Female singing 1 bar
Male singing 2 bars on second bar 8,7,5
1 bar both singing no guitar
2nd bar 6th string sliding
Follow rhythm
Lead tremolo bending
lead varying 1 bar
6th string bending 2nd bar
8,5 2 bars
finish with intro
Suggest correction
Give kudos to tab author, rate the tab!
1 2 3 4 5
comments
print report bad tab
guest
You may want to rate the tab now too:
select rating
Wanna post a correction for this tab? Suggest correction