Oops, an error
Loading. Please wait.

Low Happening Tab

version 1
version 1

Whole song

2,459 views 3 this week
2 commentsread comments
1 2 3 4 5
please rate
add to favorites
launch autoscroll
font size
0
reset
how to read this tab
guitar tuner
Autoscroll
slow
fast
+/-
esc
set tempo
stop
Help us to improve Ultimate-Guitar.com Take our survey!
×
Chords by: Chapman Li (aka SonicYouthRules)
Email:chapman_li@hotmail.com

Tab: Rory426
Email: rory426@hotmail.co.uk

I've added the tabs for guitar 2 to Chapman Li's chords, hope he doesn't mind!


Tuning: Standard


[VERSE 1]

e|---------------------------------|
B|-----------------------------16--|
G|16-15-16-16--13-16-15-16-15------|
D|---------------------------------|
A|---------------------------------|
E|---------------------------------|

e|------------------------------------------------------------|
B|------------------------------------------------------------|
G|16-15-16-16--13-16-15-16-15--13-13/15/15/15/15/15/15/15/15--|
D|------------------------------------------------------------|
A|------------------------------------------------------------|
E|------------------------------------------------------------|

x2

Ab
God only knows what you do with yourself
B                       C#
You sleep all the day and you're wasting away
Ab
You beg for your food

And you lie like a dog
B                        C#
You steal all your moves and you drink the last drop

[PRE-CHORUS]

e|--------------------------------------------------------------------------|
B|--------------------------------------------------------------------------|
G|--------------------------------------------------------------------------|
D|--------------------------------------------------------------------------|
A|-----------------------------------------------------14-16-16-14-16-16-16-|
E|-4-4-4-4/14-14-14\4-4-4-4/14-14-14\4-4-4--/16-16-16-----------------------|


Ab
You watch me

I watch you
B
You changed me
C#
Like I knew
Ab
You used me

Like I used you
B             C#
My love shot right through you


[CHORUS]

e|----------------------------------------------------|
B|-13-13-13-13- x4 -12-12-12-12- x2 -10-10-10-10- x2 -|
G|----------------------------------------------------|
D|----------------------------------------------------|
A|----------------------------------------------------|
E|----------------------------------------------------|

e|----------------------------------------------------|
B|-13-13-13-13- x4 -11-11-11-11- x2 -10-10-10-10- x2 -|
G|----------------------------------------------------|
D|----------------------------------------------------|
A|----------------------------------------------------|
E|----------------------------------------------------|


Ab
It's a low, low, low, low happening*4
B               C#
It's a low, low, low, low happening
Ab
It's a low, low, low, low happening
B                C#
It's a low, low, low, low happening

[VERSE 2]

e|---------------------------------|
B|-----------------------------16--|
G|16-15-16-16--13-16-15-16-15------| this actually changes
D|---------------------------------| but if u can tab it
A|---------------------------------| you're better than me
E|---------------------------------|

e|------------------------------------------------------------|
B|------------------------------------------------------------|
G|16-15-16-16--13-16-15-16-15--13-13/15/15/15/15/15/15/15/15--|
D|------------------------------------------------------------|
A|------------------------------------------------------------|
E|------------------------------------------------------------|

x2

Ab
And every night at the beat of the drum
B                    C#
You'd kill to be right, but I know you're wrong
Ab
You drink from the heart

And you pour from the soul
B
You listen to trash
C#
But it's not Rock'n'Roll

[PRE-CHORUS]

e|--------------------------------------------------------------------------|
B|--------------------------------------------------------------------------|
G|--------------------------------------------------------------------------|
D|--------------------------------------------------------------------------|
A|-----------------------------------------------------14-16-16-14-16-16-16-|
E|-4-4-4-4/14-14-14\4-4-4-4/14-14-14\4-4-4--/16-16-16-----------------------|

Ab
You watch me

I watch you
B
You changed me
C#
Like I knew
Ab
You used me

Like I used you
B              C#
My love shot right through you

[CHORUS]


e|----------------------------------------------------|
B|-13-13-13-13- x4 -12-12-12-12- x2 -10-10-10-10- x2 -|
G|----------------------------------------------------|
D|----------------------------------------------------|
A|----------------------------------------------------|
E|----------------------------------------------------|

e|----------------------------------------------------|
B|-13-13-13-13- x4 -11-11-11-11- x2 -10-10-10-10- x2 -|
G|----------------------------------------------------|
D|----------------------------------------------------|
A|----------------------------------------------------|
E|----------------------------------------------------|

Ab
It's a low, low, low, low happening*4
B               C#
It's a low, low, low, low happening
Ab
It's a low, low, low, low happening
B                C#
It's a low, low, low, low happening


repeat VERSE 2, PRE-CHORUS

I can't tab this next bit, any ideas?


| /  slide up
| \  slide down
| h  hammer-on
| p  pull-off
| ~  vibrato
| +  harmonic
| x  Mute note
============================================================================
Suggest correction
What's this?
You can suggest a correction to this tab. Community and Mods will review your correction and vote to approve or reject it.
comments
We did not receive enough feedback on this tab! Please rate:
print report bad tab
1 2 3 4 5
2 comments total.
0 reply
Jeb_Gibbs 12 wrote on January 3 2010, 12:11 pm

killer tab dude, I think the base solo goes

A: x-x 9-7 e: 12/14
E: 3/9/8/12/11 x-x and the high lick is B: 14/13

I'm not 100% on that last bit since I don't have an electric guitar at the minute.

0 reply
Jeb_Gibbs 12 wrote on January 3 2010, 12:12 pm

wow that s a retarded reformat

guest
You may want to rate the tab now too:
select rating
Please do not post tabs as comments. Select "correction" instead!