Oops, an error
Loading. Please wait.

Setting Sun Bass Tab

1,118 views 1 this week
no commentswrite comment
1 2 3 4 5
1 last vote to show rating
add to favorites
launch autoscroll
font size
0
reset
guitar tuner
Autoscroll
slow
fast
+/-
esc
set tempo
stop
Help us to improve Ultimate-Guitar.com Take our survey!
×
Author
Band - Howling Bells
Song - Setting Sun
Album - Howling Bells
Track - 9
Bassist - Brendan Picchio
www.howlingbells.com

Intro
G---------------------------------|
D---------------------------------|
A---------4-4-4-4-6-6-6-6-2-2-2-2-|
E-2-2-2-2-------------------------|

G---------------------------------|
D---------------------------------|
A-4-4-4-4-0-0-0-0-2-2-2-2---------|
E-------------------------3-3-3-3-|

Verse 1
G------------------|
D-----------4-4----|
A-0-0-0------------|
E-------2-2--------| x3

G---------------------------------|
D-----------------5-5-5-5-5-5-5-5-|
A-2-2-2-2-2-2-2-2-----------------|
E---------------------------------| x1

G------------------|
D-----------4-4----|
A-0-0-0------------|
E-------2-2--------| x3

G---------------------------------|
D---------------------------------|
A-2-2-2-2-2-2-2-2-----------------|
E-----------------3-3-3-3-3-3/9/--| x1

Intro x1

Verse 2
G----------------|
D----------------|
A----------------|
E-2-2-2/--9-9-9--|

G------------------|
D-----------4-4----|
A-0-0-0------------|
E-------2-2--------| x2

G---------------------------------|
D---------------------------------|
A-2-2-2-2-2-2-2-2-----------------|
E-----------------3-3-3-3-3-3-3-3-| x1

Chorus:
Don't start until after "enough to change the world"
G---------------------------------|
D-----------------5-5-5-5-5-7-5---|
A-0-0-0-0-0-0-0-0---------------5-|
E---------------------------------|

G---------------------------------|
D---------------------------------|
A-2-2-2-2-2-2-2-2-2-2-2-2-2-2-2-2-|
E---------------------------------|

G---------------------------------|
D-----------------4-4-4-4-4-4-----|
A-2-2-2-2-2-2-2-2-------------5-5-|
E---------------------------------|

G---------------------------------|
D-----------------5-5-5-5-5-7-5---|
A-0-0-0-0-0-0-0-0---------------5-|
E---------------------------------|

Little fill after chorus
G---------------------------------|
D---------------------------------|
A-2-2-2-2-2-2-2-2-2-2-2-2-2-2-2-2-|
E---------------------------------| x1

G----------------|
D----------------|
A----------------|
E-2-2-2/--9-9-9--| x3

G--------------------------|
D--------------------------|
A--------------------------|
E-7-7-7-7-7-7-7-7-5~~~-----| x1

Verse 3
Same as Verse 2

Chorus
(again don't start til after "enough to change the world")
G---------------------------------|
D-----------------5-5-5-5-5-7-5---|
A-0-0-0-0-0-0-0-0---------------5-|
E---------------------------------|

G---------------------------------|
D---------------------------------|
A-2-2-2-2-2-2-2-2-2-2-2-2-2-2-2-2-|
E---------------------------------|

G---------------------------------|
D-----------------4-4-4-4-4-4-----|
A-2-2-2-2-2-2-2-2-------------5-5-|
E---------------------------------|

G---------------------------------|
D---------------------------------|
A-0-0-0-0-0-0-0-0-----------------|
E-----------------3-3-3-3-3-3-3-3-|

Bridge
G------------------4---4-------|
D-------1--2--4--2---4---------|
A-2-2-2------------------------|
E------------------------------|

G-9-9-8-4----------4-----------|
D----------------4---1---------|
A----------------------2-------|
E------------------------------|

Repeat Bridge x2

Verse 4
No bass

Final Chorus
(again don't start til after "enough to change the world")
G---------------------------------|
D-----------------5-5-5-5-5-7-5---|
A-0-0-0-0-0-0-0-0---------------5-|
E---------------------------------|

G---------------------------------|
D---------------------------------|
A-2-2-2-2-2-2-2-2-2-2-2-2-2-2-2-2-|
E---------------------------------|

G---------------------------------|
D-----------------4-4-4-4-4-4-----|
A-2-2-2-2-2-2-2-2-------------5-5-|
E---------------------------------|

G---------------------------------|
D---------------------------------|
A-0-0-0-0-0-0-0-0-----------------|
E-----------------3-3-3-3-3-3-3-3-|

G---------------------------------|
D---------------------------------|
A-2-2-2-2-2-2-2-2-2-2-2-2-2-2-2-2-|
E---------------------------------|

G---------------------------------|
D---------------------------------|
A-0-0-0-0-0-0-0-0-----------------|
E-----------------3-3-3-3-3-3-3-3-|

G---------------------------------|
D---------------------------------|
A-2-2-2-2-2-2-2-2-2-2-2-2-2-2-2-2-|
E---------------------------------|

G---------------------------------|
D---------------------------------|
A-0-0-0-0-0-0-0-0-----------------|
E-----------------3-3-3-3-3-3-3-3-|

G---------------------------------|
D---------------------------------|
A-2~~~~~--------------------------|
E---------------------------------|
Suggest correction
Give kudos to tab author, rate the tab!
1 2 3 4 5
comments
print report bad tab
guest
You may want to rate the tab now too:
select rating
Wanna post a correction for this tab? Suggest correction