Oops, an error
Loading. Please wait.

The Bell Hit Bass Tab

324 views 1 this week
no commentswrite comment
1 2 3 4 5
2 more votes to show rating
add to favorites
launch autoscroll
font size
0
reset
guitar tuner
Autoscroll
slow
fast
+/-
esc
set tempo
stop
Help us to improve Ultimate-Guitar.com Take our survey!
×
Author
Band - Howling Bells
Song - The Bell Hit
Album - Howling Bells
Track # - 1
Bassist - Brendan Picchio
www.howlingbells.com

Intro (comes in just before the drums)
G------------------|
D------------------|
A-2---22---22---22-|
E------------------|

Verse 1

G-------------------------------|
D-------------------------------|
A-2/9---2-2/9---2-----------5-4-|
E-----------------6~~~~---5-----| x2

Prechorus 1

G------------------------------------------------------------------|
D------------------------------------------------------------------|
A-2~~~--5~~~~--4~~~~--2-x-x-------------2-x-x-------------0-2~~~---|
E---------------------------2--0-2-0-2---------2--0-2-0-2----------|

Chorus 1

G----------------------------------------------|
D----------------------------------------------|
A-2---2-2/12-12-12-12-10-10-10-10-9-9--7--5--4-|
E----------------------------------------5-----|

G--------------------------------------|
D--------------------------------------|
A-2-2-2-2---------------------------0--|
E---------5-5-5-5-3-3-3-3-2-2-3-2-3----|

Verse 2

G------------------------------------|
D------------------------------------|
A-2/9---2-2/9---2----------------5-4-|
E-----------------6~~~~-6-7-6--5-----| x2

Prechorus 2

G----------------------------------------------|
D----------------------------------------------|
A-2-x-x-------------2-x-x-------------0-2~~~---|
E-------2--0-2-0-2---------2--0-2-0-2----------|

Chorus 2

G----------------------------------------------|
D----------------------------------------------|
A-2---2-2/12-12-12-12-10-10-10-10-9-9--7--5--4-|
E----------------------------------------5-----|

G--------------------------------------|
D--------------------------------------|
A-2-2-2-2---------------------------0--|
E---------5-5-5-5-3-3-3-3-2-2-3-2-3----|

Final Chorus

G----------------------------------------------|
D----------------------------------------------|
A-2-2-2-2-4-4-4-4-10-10-10-10-9-9--7------5--4-|
E----------------------------------------5-----|

G--------------------------------------------|
D--------------------------------------------|
A-2-2-2-2------------------------------------|
E---------5-5-5-5-3-3-3-3-2-2-3-5-6-7~~~~~---|
Suggest correction
Give kudos to tab author, rate the tab!
1 2 3 4 5
comments
print report bad tab
guest
You may want to rate the tab now too:
select rating
Wanna post a correction for this tab? Suggest correction