Oops, an error
Loading. Please wait.

Velvet Girl Bass Tab

232 views 1 this week
no commentswrite comment
1 2 3 4 5
3 more votes to show rating
add to favorites
launch autoscroll
font size
0
reset
guitar tuner
Autoscroll
slow
fast
+/-
esc
set tempo
stop
Help us to improve Ultimate-Guitar.com Take our survey!
×
Author
Band - Howling Bells
Song - Velvet Girl
Album - Howling Bells
Track - 2
Bassist - Brendan Picchio
www.howlingbells.com

Verse 1
G---------------------------------------|
D---------------------------------------|
A---------------------------------------|
E-6---6-6---7---7-7---9---9-9---7---7-7-|

G---------------------------------------|
D---------------------------------------|
A---------------------------------------|
E-6---6-6---7---7-7---9---9-9---4---4-4-|

G-------------------|
D-------------------|
A-------------------|
E-2---2-2---2---2-2-|

Repeat Verse 1

Chorus 1
G----------------------------------|
D----------------------------------|
A----------------------------------|
E-/9-9-9-9-9-9-9-9-9-9-9-9-9-9-9-9-|

G---------------------------------|
D---------------------------------|
A---------------------------------|
E-9-9-9-9-9-9-9-9-5-5-5-5-5-5-5-5-|

G---------------------------------|
D---------------------------------|
A---------------------------------|
E-2-2-2-2-2-2-2-2-5-5-5-5-5-5-5-5-|

G-----------------|
D-----------------|
A-----------------|
E-2~~~~~----------|

Verse 2: Same as Verse 1

Chorus 2
G----------------------------------|
D----------------------------------|
A----------------------------------|
E-/9-9-9-9-9-9-9-9-9-9-9-9-9-9-9-9-|

G---------------------------------|
D---------------------------------|
A---------------------------------|
E-9-9-9-9-9-9-9-9-5-5-5-5-5-5-5-5-|

G---------------------------------|
D---------------------------------|
A---------------------------------|
E-2-2-2-2-2-2-2-2-5-5-5-5-5-5-5-5-|

G-----------------|
D-----------------|
A-----------------|
E-2-2-2-2-2-2-2-2-|

Then play Chorus 1

Bridge
G--------------------------------|
D--------------------------------|
A--------------------------------|
E-6~~~~~----------7~~~~~~--------|

G--------------------------------|
D--------------------------------|
A--------------------------------|
E-9~~~~~/0-----------------------| (let the 9 ring for a while then slowly slide down to 0)

G--------------------------------|
D--------------------------------|
A--------------------------------|
E-6~~~~~----------7~~~~~~--------|

G--------------------------------|
D--------------------------------|
A--------------------------------|
E-9~~~~~---------/4~~~~~---------|

G-------------------|
D-------------------|
A-------------------|
E-2---2-2---2---2-2-|

Chorus 3: Play Chorus 2 then:

G---------------------------------|
D---------------------------------|
A---------------------------------|
E-5-5-5-5-5-5-5-5-2-2-2-2-2-2-2-2-| (gradually slower with the tempo)

G---------------------------------|
D---------------------------------|
A---------------------------------|
E-5-5-5-5-5-5-5-5-2~~~~~----------|
Suggest correction
Give kudos to tab author, rate the tab!
1 2 3 4 5
comments
print report bad tab
guest
You may want to rate the tab now too:
select rating
Wanna post a correction for this tab? Suggest correction