Oops, an error
Loading. Please wait.

Wishing Stone Bass Tab

198 views 1 this week
no commentswrite comment
1 2 3 4 5
please rate
add to favorites
launch autoscroll
font size
0
reset
guitar tuner
Autoscroll
slow
fast
+/-
esc
set tempo
stop
Help us to improve Ultimate-Guitar.com Take our survey!
×
Author
Band - Howling Bells
Song - Wishing Stone
Album - Howling Bells
Track - 5
Bassist - Brendan Picchio
www.howlingbells.com

Intro/Chorus
G---------------------------------|
D---------------------------------|
A---------------------------------|
E-2-2-2-2-2-2-2-2-5-5-5-5-5-5-5-5-|

G---------------------------------|
D---------------------------------|
A---------------------------------|
E-8-8-8-8-8-8-8-8-4-4-4-4-4-4-4-4-|

G---------------------------------|
D---------------------------------|
A---------------------------------|
E-6-6-6-6-6-6-6-6-5-5-5-5-5-5-5-5-|

G---------------------------------|
D---------------------------------|
A---------------------------------|
E-4-4-4-4-4-4-4-4-4-4-4-4-4-4-4-4-|

Break

Verse Part 1:
This was hard to make out, not sure its right but closest I could get
G-----------------------------------|
D-----------------------------------|
A-----------------------------------|
E-8p7/10~~--11~~~~---10~~~~~-5~~~~~-|

Break

Verse Part 2
G-----------------------------------|
D-----------------------------------|
A-----------------------------------|
E-8p7/10~~--11~~~~---10~~~~~-9~~~~~-|

Chorus x1

Break
Verse Part 1
Break
Verse Part 2

Chorus x2

Bridge "Another messenger is dead..."
No bass in bridge but if you want to fill the time:
G-------------------------------------------------|
D-------------------------------------------------|
A-------------------------------------------------|
E-7(x8)-5(x8)-4(x16)-7(x8)-5(x8)-4(x16)-----------|

Break
Verse Part 1
Break

Verse Part 2 (slighty different)
G-----------------------------------|
D-----------------------------------|
A-----------------------------------|
E-8p7/10~~--11-11-11-11-11-11-11-11-|

G-----------------------------------------|
D-----------------------------------------|
A-----------------------------------------|
E-10-10-10-10-10-10-10-10-5-5-5-5-5-5-5-5-|

Chorus x1

Chorus is actually played twice through by the other instruments,
but bass stops after once
Suggest correction
Give kudos to tab author, rate the tab!
1 2 3 4 5
comments
print report bad tab
guest
You may want to rate the tab now too:
select rating
Wanna post a correction for this tab? Suggest correction