Oops, an error
Loading. Please wait.

Angel Of Small Death The Codeine Scene solo tab

version 3
version 3

Whole song

by Hozier
703 views 3 this week
no commentswrite comment
1 2 3 4 5
x 3
add to favorites
×
Save as Personal and add changes to this tab that will be seen only by you. Learn more ›
×
You can save this tab as Personal to edit and correct it or add notes. All changes will be seen only by you. Learn more »
launch autoscroll
font size
0
reset
how to read this tab
guitar tuner
edit
Autoscroll
slow
fast
+/-
esc
set tempo
stop
-------------------------------------------------------------------------------------------------
Hozier - Angel Of Small Death & The Codeine Scene
-------------------------------------------------------------------------------------------------

First of all, I haven't written the tabs myself. I have found someone on YouTube who made a small tutorial.
So all the thanks here should go to him. It's a fearly easy solo to learn but a fun one to play.

Link: https://www.youtube.com/watch?v=0oVhO46ETWs (Be shure to check it out and like his video!)

I've seen Hozier playing it live on video and this seems really accurate. Solo starts at 2:14

Link: https://www.youtube.com/watch?v=SiSa4r67Cc8


Solo: standard tuning

e|---------------------------------------------------------------|
B|---------------------------------------------------------------|
G|--4(b)6--4--2--4(b)6--4--2---2---------------2-----------------|
D|---------------------------4---4------2--4-4-------------------|
A|----------------------------------2/4--------------------------|
E|---------------------------------------------------------------|

e|---------------------------------------------------------------|
B|---------------------------------------------------------------|
G|--4(b)6--4--2-----2--------------------------------------------|
D|----------------4---4--------2--4-4----------------------------|
A|-----------------------2/4-------------------------------------|
E|---------------------------------------------------------------|

e|---------------------------------------------------------------|
B|-----5---7--5--------------------------------------------------|
G|--/6---6------6/4--2--4--2--2-1--------------------------------|
D|---------------------------------------------------------------|
A|---------------------------------------------------------------|
E|---------------------------------------------------------------|

e|---------------------------------------------------------------|
B|---------------------------------------------------------------|
G|--4(b)6--4--2-----2--------------------------------------------|
D|----------------4---4--------2--4-4----------------------------|
A|-----------------------2/4-------------------------------------|
E|---------------------------------------------------------------|


Please give a rating and...
Enjoy!


Hakke

Bringing Youtube and Ultimate Guitar Together

            
            
Suggest correction
Creating personal tab
Creating personal tab
You can edit any tab online and save it as your Personal.

You can edit, replace or remove any tab part or add personal notes – all changes will be seen only by you.

Personal tabs can be accessed anytime from any device, even offline.
Learn more »
Give kudos to tab author, rate the tab!
1 2 3 4 5
comments
print report bad tab
guest
You may want to rate the tab now too:
select rating
Wanna post a correction for this tab? Suggest correction