Oops, an error
Loading. Please wait.

Cherry Wine Tab

version 1
version 1

Whole song

  • This is far more organized, I included missing not... Show more

Interactive

344,397 views 2,328 this week
21 commentsread comments
1 2 3 4 5
excellent!
x 384
add to favorites
launch autoscroll
font size
0
reset
how to read this tab
guitar tuner
Autoscroll
slow
fast
+/-
esc
set tempo
stop
Help us to improve Ultimate-Guitar.com Take our survey!
×
Contributor
Difficulty
Capo
intermediate
6th fret
[Intro]

e|---------------0|
B|----------------|
G|----------------|
D|----------------|
A|----------------|
E|3-3-3-3-3-3-3-3-|

e|--0-3-5--------------------------0--0-3-5-----------------|
B|-3---------------------------------3----------------------|
G|--------2h4--4p2p0-0----0h2p0-0-----------2h4--4p2p0-0----|
D|---------------------0h2-------------------------------oh2|
A|----------------------------------------------------------|
E|3-3-3-3-3--3-3-----3-3--3-----3-3-3-3-3-3-3--3-3-----3-3--|

e|--------------------------------------0---------------------------|
B|--------1--0-----------0----------------3-0-----------------------|
G|0h2p0------------0--2---------0-0-2p0------2-0-----0h2p00--0------|
D|--------------2-----------0h2--0--------------0h2------------0-0-|
A|--------3-3-3-3-3-3-3-3-3-3--3-----------------------------------|
E|3---------------------------------3--3-3--3--3-3---3----3-3-3-33-3|


[Verse]

e|------------------------------0----|
B|3-----0--3----0-3---0-3-------1--1-|
G|---2--------2-----2-----0--0--0--0-|
D|------------------------2--2--2----|
A|------------------------------3-3-3|
E|3-3-3-3-3-3-3-3-3-3-3-3-0-0-0-3----|

e|---------------------------------------|
B|1p0-0-----------3-----0--3----0-3---0-3|
G|0---0--0h2p0-------2--------2-----2----|
D|-------------0-------------------------|
A|---------------------------------------|
E|3--3-3-3----3-3-3-3-3-3-3-3-3-3-3-3-3-3|

e|------0--------------------------|
B|------1--1--1p0-0----------------|
G|0--0--0--0--0---0--0h2p0---------|
D|2--2--2------------------0-------|
A|------3-3-3----------------------|
E|0-0-0-3-----3--3-3-3----3-3------|

Her eyes and words are so icy
Oh but she burns
Like rum on the fire
Hot and fast and angry
As she can be
I walk my days on a wire.

e|0-----0----0----0-----0-----0--------------0------------|
B|1-----0----1----0-----1-----0---------------------------|
G|0-----0----0----0-----0-----0---------------------------|
D|2-----2----2----2-----2-----2---------------------------|
A|3-----2----3----2-----3-----2---------------------------|
E|3-----0----3----0-----3-----0-----0-2-3-3-3-------------|

It looks ugly, but it's clean,
Oh momma, don't fuss over me.


[Chorus]

e|--0-3-5--------------------------0--0-3-5-----------------|
B|-3---------------------------------3----------------------|
G|--------2h4--4p2p0-0----0h2p0-0-----------2h4--4p2p0-0----|
D|---------------------0h2-------------------------------oh2|
A|----------------------------------------------------------|
E|3-3-3-3-3--3-3-----3-3--3-----3-3-3-3-3-3-3--3-3-----3-3--|

e|--------------------------------------0--------------------------|
B|--------1--0-----------0----------------3-0----------------------|
G|0h2p0------------0--2---------0-0-2p0------20-----0h2p00--0------|
D|--------------2-----------0h2--0--------------0h2------------0-0-|
A|--------3-3-3-3-3-3-3-3-3-3--3-----------------------------------|
E|3---------------------------------3--3-3--3-3-3---3----3-3-3-33-3|

The way she tells me I'm hers and she is mine
Open hand or closed fist would be fine
The blood is rare and sweet as cherry wine.

e|------------------------------0----|
B|3-----0--3----0-3---0-3-------1--1-|
G|---2--------2-----2-----0--0--0--0-|
D|------------------------2--2--2----|
A|------------------------------3-3-3|
E|3-3-3-3-3-3-3-3-3-3-3-3-0-0-0-3----|

e|---------------------------------------|
B|1p0-0-----------3-----0--3----0-3---0-3|
G|0---0--0h2p0-------2--------2-----2----|
D|-------------0-------------------------|
A|---------------------------------------|
E|3--3-3-3----3-3-3-3-3-3-3-3-3-3-3-3-3-3|

e|------0--------------------------|
B|------1--1--1p0-0----------------|
G|0--0--0--0--0---0--0h2p0---------|
D|2--2--2------------------0-------|
A|------3-3-3----------------------|
E|0-0-0-3-----3--3-3-3----3-3------|


[Verse]

Calls of guilty fall on me
All while she stains
The sheets of some other
Thrown at me so powerfully
Just like she throws with the arm of her brother.

e|0-----0----0----0-----0-----0--------------0--------------|
B|1-----0----1----0-----1-----0-----------------------------|
G|0-----0----0----0-----0-----0-----------------------------|
D|2-----2----2----2-----2-----2-----------------------------|
A|3-----2----3----2-----3-----2-----------------------------|
E|3-----0----3----0-----3-----0-----0-2-3-3-3---------------|

But I want it, it's a crime
That she's not around most of the time.


[Chorus]

e|--0-3-5--------------------------0--0-3-5-----------------|
B|-3---------------------------------3----------------------|
G|--------2h4--4p2p0-0----0h2p0-0-----------2h4--4p2p0-0----|
D|---------------------0h2-------------------------------oh2|
A|----------------------------------------------------------|
E|3-3-3-3-3--3-3-----3-3--3-----3-3-3-3-3-3-3--3-3-----3-3--|

e|--------------------------------------0--------------------------|
B|--------1--0-----------0----------------3-0----------------------|
G|0h2p0------------0--2---------0-0-2p0------20-----0h2p00--0------|
D|--------------2-----------0h2--0--------------0h2------------0-0-|
A|--------3-3-3-3-3-3-3-3-3-3--3-----------------------------------|
E|3---------------------------------3--3-3--3-3-3---3----3-3-3-33-3|

The way she shows me I'm hers and she is mine
Open hand or closed fist would be fine
Blood is rare and sweet as cherry wine.


[Instrumental]


e|-----0---------0-------0----------------|
B|0h1---1-1/3-----3-3/1---1-1/3--3/1p0--0-|
G|----0---------0-------0-----------------|
D|---2--------4--------2----2/4--4/2p0--0-|
A|0-------0---------0---------------------|
E|----------------------------------------|

e|---------------------------------|
B|------1h3------------------------|
G|---0-----0h2-------------0h2p0-0-|
D|------------0h2p0-----0h2--------|
A|-----------------0h2-------------|
E|3-3-3-3--3--3----3--3-3--3----3-3|

e|-----0---------0-------0----------------|
B|0h1---1-1/3-----3-3/1---1-1/3--3/1p0--0-|
G|----0---------0-------0-----------------|
D|---2--------4--------2----2/4--4/2p0--0-|
A|0-------0---------0---------------------|
E|----------------------------------------|

e|-----------------------------------|
B|0----0--0--------------------------|
G|----0-0---0---0-----0--------------|
D|---------2--0-0--0-----0-----------|
A|---2-------------------------------|
E|0-------0---2-3-3-3-3-3-3----------|


[Verse]

e|------------------------------0----|
B|3-----0--3----0-3---0-3-------1--1-|
G|---2--------2-----2-----0--0--0--0-|
D|------------------------2--2--2----|
A|------------------------------3-3-3|
E|3-3-3-3-3-3-3-3-3-3-3-3-0-0-0-3----|

e|---------------------------------------|
B|1p0-0-----------3-----0--3----0-3---0-3|
G|0---0--0h2p0-------2--------2-----2----|
D|-------------0-------------------------|
A|---------------------------------------|
E|3--3-3-3----3-3-3-3-3-3-3-3-3-3-3-3-3-3|

e|------0--------------------------|
B|------1--1--1p0-0----------------|
G|0--0--0--0--0---0--0h2p0---------|
D|2--2--2------------------0-------|
A|------3-3-3----------------------|
E|0-0-0-3-----3--3-3-3----3-3------|

Her fight and fury is fiery
Oh but she loves
Like sleep the the freezing
Sweet and right and merciful
I'm all but washed
In the tide of her breathing

e|0-----0----0----0-----0-----0--------------0--------------|
B|1-----0----1----0-----1-----0-----------------------------|
G|0-----0----0----0-----0-----0-----------------------------|
D|2-----2----2----2-----2-----2-----------------------------|
A|3-----2----3----2-----3-----2-----------------------------|
E|3-----0----3----0-----3-----0-----0-2-3-3-3---------------|

And it's worth it, it's divine
And I can have this some of the time.


[Chorus]

e|--0-3-5--------------------------0--0-3-5-----------------|
B|-3---------------------------------3----------------------|
G|--------2h4--4p2p0-0----0h2p0-0-----------2h4--4p2p0-0----|
D|---------------------0h2-------------------------------oh2|
A|----------------------------------------------------------|
E|3-3-3-3-3--3-3-----3-3--3-----3-3-3-3-3-3-3--3-3-----3-3--|

e|--------------------------------------0--------------------------|
B|--------1--0-----------0----------------3-0----------------------|
G|0h2p0------------0--2---------0-0-2p0------20-----0h2p00--0------|
D|--------------2-----------0h2--0--------------0h2------------0-0-|
A|--------3-3-3-3-3-3-3-3-3-3--3-----------------------------------|
E|3---------------------------------3--3-3--3-3-3---3----3-3-3-33-3|

The way she shows me I'm hers and she is mine
Open hand or closed fist would be fine
The blood is rare and sweet as cherry wine.


[Outro]

e|-0|--0-3-5--------------------------0--0-3-5-----------------|
B|--|-3---------------------------------3----------------------|
G|--|--------2h4--4p2p0-0----0h2p0-0-----------2h4--4p2p0-0----|
D|--|---------------------0h2-------------------------------oh2|
A|--|----------------------------------------------------------|
E|3-|3-3-3-3-3--3-3-----3-3--3-----3-3-3-3-3-3-3--3-3-----3-3--|

e|--------------------------------------0--------------------------|
B|--------1--0-----------0----------------3-0----------------------|
G|0h2p0------------0--2---------0-0-2p0------20-----0h2p0-0--------|
D|--------------2-----------0h2--0--------------0h2-------0--------|
A|--------3-3-3-3-3-3-3-3-3-3--3--------------------------2--------|
E|3---------------------------------3--3-3--3-3-3---3-----3--------|


************************************
| /   slide up
| \   slide down
| h   hammer-on
| p   pull-off
************************************
Suggest correction new What's this?
You can suggest a correction to this tab. Community and Mods will review your correction and vote to approve or reject it.
comments
print report bad tab
21 comments total. Showing first comments.
+8 reply
christopher.car 19 wrote on January 9 2014, 01:49 pm

Excellent tab man, any chance of one for 'Like Real People Do'? ;-)

+5 reply
JimmyO96 532 wrote on February 18 2014, 04:32 am

great job!

+5 reply
wiseowl5569 19 wrote on April 19 2014, 07:30 pm

Amazing job, everything seems spot on! Thanks for sharing it with us online

guest
You may want to rate the tab now too:
select rating
Please do not post tabs as comments. Select "correction" instead!