Oops, an error
Loading. Please wait.

In A Week tab

version 4
version 4

Whole song

by Hozier
9,792 views 45 this week
5 commentsread comments
1 2 3 4 5
x 23
add to favorites
×
Save as Personal and add changes to this tab that will be seen only by you. Learn more ›
×
You can save this tab as Personal to edit and correct it or add notes. All changes will be seen only by you. Learn more »
launch autoscroll
font size
0
reset
how to read this tab
guitar tuner
edit
Autoscroll
slow
fast
+/-
esc
set tempo
stop
Artist: Hozier
Song: In a Week
Tabbed by: catagh0st4
Tuning: DGDGBd

[Intro]
d|--0-----0----2--4/5-5---------5-----------9---4---4h5--4-2--0------0-------------|
B|---------------------------------------------------------------0-------0---------|
G|-----0-------------------0---------0---------------------------------------------|
D|------0--------------------0---------0------0---0-----------------0------0-------|
G|--0-------0---------0-----------0---------0-------0---------0--------0-----------|
D|---------------------------------------------------------------------------------|

d|----------0----------------------------------------------------------------------------0-----|
B|---0h1-----------3---1--0-----------3----0---------------------------------------0-----------|
G|--------------------------------2--------------------0---0----------------0----0-------------|
D|---0h2--2---2----4---2--0------------------0---0h2-----------0-----0h2---------------0-------|
G|--------------------------------2--2--2--0-------------0-0------------------0--0----------0--|
D|--------------------------------------------0--0h2--2------------0-0h2--2--------------------|

[Verse 1]
d|---------0-------0---0------0-------0---------------------------------0----------------------|
B|--0---------0------------------0---------0-----0-------0-------0---------------0h1p0---------|
G|------------------------------------------------------------------0--------------------------|
D|----0h3--3----3----3---3\2--2----2----2-----2------0---------------------------0-------------|
G|-----------------------------------------------3/5---3---3-----0----0---0--------------------|
D|-----------------------------------------------------------3---------------------------------|
I have never known peace like the damp grass that yields to me

d|-----0-------0-----0------0-------0-------0----0-------0------0-----------------0------------|
B|---------0-------------0-----0----------------------------0---------0h1p0---0----------------|
G|---------------------------------------------------------------------------------------------|
D|---3---3---3---3--2-2----2-2--------0-----------------------0-------0---------0--------------|
G|-----------------------------3/5------3-----3----3p2---0---------0--------0-------0----------|
D|----------------------------------------------------3----------------------------------------|
I have never known hunger like these insects that feast on me

d|---------0-------0---0------0-------0-----------------------------------0--------------------|
B|--0---------0------------------0---------0-----0h1------1-------1-------------1--------------|
G|----------------------------------------------------0-------0-------0------------------------|
D|----0h3--3----3----3---3\2--2----2----2-----2------------------------------------------------|
G|-----------------------------------------------0------0---0---0---0---0---0------------------|
D|---------------------------------------------------------------------------------------------|
A thousand teeth and yours among them, I know

d|--------0-----0---0-----0-----0----------------------------0---------------0-----------------|
B|----------0---------------0-------0----0-------0-----0----------0h1p0-----------0------------|
G|-------------------------------------------------------0----------------0--------------------|
D|---0h3--3---3---3---3\2-2---2---2---2------0-------------0------0--------0-------------------|
G|---------------------------------------3/5---3---3---0-------0--------0------0----0----------|
D|---------------------------------------------------3-----------------------------------------|
Our hungers appeased, our heart beats becoming slow

[Pre-Chorus]
d|-0--------0-------0---------------------------------------------------------|
B|---------------------------------------3---0------------3---0---------------|
G|------0-------0--------------------2-----------0----2-----------0-----------|
D|-5--5--5--2-2---0-2/4-2-0------------------------0----------------0---------|
G|--------------------------2/4-2-0--2-2---2-0-0------2-2---2-0-0-------------|
D|----------------------------------------------------------------------------|
We'll lay here for years or for hours / Thrown here or found, to freeze or to thaw

d|-0--------0-------0--------------------------------------------------------|
B|---------------------------------------3---0--------------------0----------|
G|------0-------0--------------------2-----------0----2/4--2-0-0-------------|
D|-5--5--5--2-2---0-2/4-2-0--------------------------------------------------|
G|--------------------------2/4-2-0--2-2---2-0-0------2/4--2-0-0-----0-------|
D|---------------------------------------------------------------------------|
So long, we'd become the flowers / Two corpses we were, two corpses I saw

[Chorus]
d|--0-----0----2--4/5-5---------5-----------9---4----4h5-4-2---0------0-------------|
B|----------------------------------------------------------------0-------0---------|
G|-----0-------------------0---------0----------------------------------------------|
D|------0--------------------0---------0------0---0-----------------0-------0-------|
G|--0-------0---------0-----------0---------0--------0---------0--------0-----------|
D|----------------------------------------------------------------------------------|
And they'd find us in a week / When the weather gets hot

e|----------0--------------------------------------------------------------------0-------0-----|
B|---0h1-----------3---1--0-----------3----0----------------------------------------0----------|
G|--------------------------------2--------------------0---0----------------0------------------|
D|---0h2------2----4---2--0------------------0---0h2-----------0-----0h2---------------0-------|
G|--------------------------------2--2--2--0-------------0-0------------------0--0----------0--|
D|--------------------------------------------0--0h2--2------------0-0h2--2--------------------|
After the insects have made their claim / I'll be home with you, I'll be home with you

[Verse 2]
d|--------------0----------0-----0-----------------------0-------------------------------------0-------|
B|--0h1p0---0-------0--------0--------0--------0-----0-------------0-----0--------0h1p0----0-----------|
G|--------------------------------------------------------------------0--------------------------------|
D|--0-----3---3---3----3---2---2---2----2--------0-----0----------------0---------0----------0---------|
G|-----------------------------------------3/5-----3--------3p2----0--------0----------0---------0-----|
D|--------------------------------------------------------------3--------------------------------------|
I have never known sleep like this slumber that creeps to me

d|--------0-----0----0------0-------------0-----------------------0------------------0---------|
B|-0--------0-----------0-------0--------------0----------0------------0h1p0----0--------------|
G|-----------------------------------------------------------0---------------------------------|
D|---0h3--3---3---3--2----2---2---2--------0-------------------0-------0----------0------------|
G|------------------------------------3/5----3---3--3p2---0---------0---------0---------0------|
D|------------------------------------------------------3--------------------------------------|
I have never known colors like this morning reveals to me

d|---------0-------0---0------0-------0-------------------------------------------------------|
B|--0---------0------------------0---------0-------0h1----------------------------------------|
G|--------------------------------------------------------------------------------------------|
D|----0h3--3----3----3---3\2--2----2----2-----2p0---------------------------------------------|
G|-------------------------------------------------0-------------0----------------------------|
D|--------------------------------------------------------------------------------------------|
And you haven't moved an inch such that I would not know

d|--------0-----0-----0-----0---------------------------------0----------------------0---------|
B|-1--------------------0-------0----------0-----0-----0---------------0h1p0-------------0-----|
G|-----------0--------------------------------------------0---------------------0--------------|
D|---0----3---3---3---2---2---2---2----------0-----0---------0------0--0----------0------------|
G|-------------------------------------3/5-----3-------0--------0------------0---------0---0---|
D|---------------------------------------------------3-----------------------------------------|
If you sleep always like this, the flesh calmly going cold

[Pre-Chorus]
d|-0--------0-------0--------------------------------------------------------------------------|
B|---------------------------------------3---0------------3---0--------------------------------|
G|------0-------0--------------------2-----------0----2-----------0----------------------------|
D|-5--5--5--2-2---0-2/4-2-0------------------------0----------------0--------------------------|
G|--------------------------2/4-2-0--2-2---2-0-0------2-2---2-0-0------------------------------|
D|---------------------------------------------------------------------------------------------|
We'll lay here for years or for hours / Your hand in my hand, so still and discreet

d|-0--------0-------0----------------------------------------------------------|
B|---------------------------------------3---0--------------------------0------|
G|------0-------0--------------------2----------0---------2/4--2-0--0----------|
D|-5--5--5--2-2---0-2/4-2-0-----------------------------------------------0----|
G|--------------------------2/4-2-0--2-2---2-0----0-------2/4--2-0--0--0-------|
D|-----------------------------------------------------------------------------|
So long, we'd become the flowers / We'd feed well the land and worry the sheep

[Chorus]
d|--0-----0----2--4/5-5---------5-----------9---4----4h5--4-2--0------0-------------|
B|----------------------------------------------------------------0------0----------|
G|-----0-------------------0---------0--------------------------------------------- |
D|------0--------------------0---------0------0---0-----------------0-------0-------|
G|--0-------0---------0-----------0---------0--------0---------0--------0-----------|
D|----------------------------------------------------------------------------------|
And they'd find us in a week / When the cattle'd show fear

e|--------0----------------------------------|
B|--0h1----------3---1--0-------3----0-------|
G|---------------------------2----------0----|
D|--0h2-----2----4---2--0-----------------0--|
G|---------------------------2----2--0-------|
D|-------------------------------------------|
After the insects have made their claim

e|-------0-------------------------------------------------------------------|
B|--0h1--------3--1--0----3-----0--------------------------------------------|
G|----------------------2------------------0----0---------0------------------|
D|--0h2----2---4--2--0-------------0----2----------0----2--------------------|
G|----------------------2----2--0------------0--0-----------0----------------|
D|-----------------------------------0--2------------0--2--------------------|
After the foxes have known our taste / I'll be home with you, I'll be home with you

[Solo]
d|--0-----0----2--4/5-5---------5-----------9---4---4h5----2----0h2p------------0-----------|
B|-------------------------------------------------------------------------0h1/3---3\1p0----|
G|-----0-------------------0---------0-------------------------------0-------------------0--|
D|------0--------------------0---------0------0---0------0----0-----------------------------|
G|--0-------0---------0-----------0---------0-------0-----------0---------------------------|
D|------------------------------------------------------------------------------------------|

e|-------0--------------------0--------------------------------------------------|
B|-0h1----------3--1-0--------------0-------------------------------------0------|
G|-----------------------2------2p0---------------0--0------------0----0---------|
D|-0h2-2---2/4--4--2-0-----------------0----0h2---------0----0h2-----------------|
G|-----------------------2--2---2p0-0--------------0-0--------------0--0---------|
D|---------------------------------------0--0h2-----------0--0h2-----------------|

[Outro]
d|-0--------0-------0-----------------------|
B|------------------------------------------|
G|------0-------0---------------------------|
D|-5--5--5--2-2---0-2/4-2-0-----------------|
G|--------------------------2/4-2-0---------|
D|------------------------------------------| (x4)

And they'd find us in a week (We'll lay here for years or for hours)
When the weather gets hot    (So long, we'd become the flowers)
And they'd find us in a week (We'll lay here for years or for hours)
When the cattle'd show fear  (So long, we'd become the flowers)

And they'd find us in a week
When the buzzards get loud
After the insects have made their claim
After the foxes have known our taste
After the raven has had his say

e|--------------------------------------------------------------------------------------------------|
B|--------------------------------------------------------------------------------------------------|
G|-----0----0---0------0----0---0-------0----0---0-------0----0---0------0----0---0------0----------|
D|--2----------------2---------------2-----------------2---------------2---------------2------------|
G|-------0--0------------0--0-------------0--0-------------0--0------------0--0------------0--------|
D|--2-------------0--2------------0--2--------------0--2------------0--2------------0--2------------|
I'll be home with you, I'll be home with you...x3

[Solo]
d|--0-----0----2--4/5-5---------5-----------9---4---4h5----2----0h2p------------0-----------|
B|-------------------------------------------------------------------------0h1/3---3\1p0----|
G|-----0-------------------0---------0-------------------------------0-------------------0--|
D|------0--------------------0---------0------0---0------0----0-----------------------------|
G|--0-------0---------0-----------0---------0-------0-----------0---------------------------|
D|------------------------------------------------------------------------------------------|

e|-------0--------------------0----------------------------------------0---------|
B|-0h1----------3--1-0--------------0----------------------------------0---------|
G|-----------------------2------2p0--------------0---0------------0----0---------|
D|-0h2-2---2/4--4--2-0-----------------0----0h2---------0----0h2-------0---------|
G|-----------------------2--2---2p0-0--------------0-0--------------0--0---------|
D|---------------------------------------0--0h2-----------0--0h2-----------------|



************************************

| h  Hammer-on
| /  Slide up
| p  Pull-off
| \  Slide down

************************************

            
            
Suggest correction
Creating personal tab
Creating personal tab
You can edit any tab online and save it as your Personal.

You can edit, replace or remove any tab part or add personal notes – all changes will be seen only by you.

Personal tabs can be accessed anytime from any device, even offline.
Learn more »
comments
print report bad tab
5 comments total. Showing first comments.
+2 reply
willgriffith21 22 Nov 18, 2015 09:16 AM

great tab!

+1 reply
danbancs88 10 Jan 10, 2016 03:03 AM

5 stars! Most accurate tab on the Internet!

0 reply
colinhogg89 10 Mar 10, 2016 11:10 AM

savage *****

guest
You may want to rate the tab now too:
select rating
Wanna post a correction for this tab? Suggest correction