Oops, an error
Loading. Please wait.

It Will Come Back tab

version 2
version 2

Whole song

  • Its the only version thats correct and has the whole song.
by Hozier
1,981 views 36 this week
no commentswrite comment
1 2 3 4 5
x 5
add to favorites
×
Save as Personal and add changes to this tab that will be seen only by you. Learn more ›
×
You can save this tab as Personal to edit and correct it or add notes. All changes will be seen only by you. Learn more »
launch autoscroll
font size
0
reset
how to read this tab
guitar tuner
edit
Autoscroll
slow
fast
+/-
esc
set tempo
stop
Author
Difficulty
About this tab version
Its the only version thats correct and has the whole song. Was this info helpful? Yes No
Tuning: DADFBD    THOUGHT I WOULD MAKE ONE SINCE THE OTHERS ARE A BIT NAFF AREN'T THEY
        NOT ALL THINGS MAY BE FULLY ACCURATE WITH TIMING BUT THEY ARE THE NOTES THAT ARE USED.

Note that the slide on the lower strings is placed inline with the fret itself not the centre.
Also all notes played on the low D string are played with the slide except solo.

************************************

| /   slide up
| \   slide down

************************************

[Intro] 

(this riff is repeated 3 time then the riff below is played once.)

D|----0--------0------0--------0------|    this riff is a loop
B|------------------------------------|    after the slide on
F|------------------------------------|    top strings play the 
D|-----------0------------------------|    open D note again.
A|------0-3-----3/5-3-0-/6-5-3-0-2/3--|
D|--0-------------------/6-5-3-0-2/3--|

Then this is the riff going into the verse.

D|----0--------0--0-0-0--------------------|
B|-----------------------------------------|
F|-----------------------------------------|
D|-----------0-----------------------------|
A|------0-3-------5-3-0-/6-5-3-0-----------|
D|--0-------------------/6-5-3-0-----------|


[Verse] (x2)                    

(add a bit of shake to the slide.)
     
D|--0--0-----0--------0--0-----0----------------------------------------------|
B|----------------------------------------------------------------------------|
F|----------------------------------------------------------------------------|
D|--3--2--2-----0-------------------------------------------------------------|
A|-----------------3-----2--2-----0----/5-----5\4---/5-----5\4----------------|
D|-------------------------------------/5-----5\4-0-/5-----5\4-0--------------|

This slide bit has a rhythm i cant be asked to put so just listen to the song.

Bit before the chorus, this is played twice like the verse.

D|--------0------0------------0------0-----------|
B|-----------------------------------------------|
F|------------------------------------------1----|
D|-----0------------0------0------------0---0----|
A|-----------------------------------------------|
D|0/8---------8---------7---------7---------0----|


[Chorus]

(im still yet to find out exactly what he is playing but i know the frets he uses, the slide is used on
all the played strings.)
                                             
D|----------------------------------------------------------------------------|    
B|----------------------------------------------------------------------------|    
F|----------------------------------------------------------------------------|
D|---/7--7--7-7--7--7-7--7--6----5-5-5-5-0-5\---------------------------------|
A|---/7--7--7-7--7--7-7--7--6--0-5-5-5-5-0-5\---------------------------------|
D|--0/7--7--7-7--7--7-7--7--6--0-5-5-5-5-0-5\---------------------------------|

This part also has a rhythm i cant exactly put to tab, but if you listen to the song you should get it right,
for the part of the 7th fret, shake the slide. The open strings at the end, are not played, its just him 
releasing the capo from the strings on the 5th fret.

the main riff after the chorus,played once.

D|----0--------0------0--------0--------0--------0--0-------------------------|    
B|----------------------------------------------------------------------------|    
F|----------------------------------------------------------------------------|
D|-----------0---------------------------------0------------------------------|
A|------0-3-----3/5-3-0-/6-5-3-0-2/3------0-3-------5-3-0-/6-5-3-0------------|
D|--0-------------------/6-5-3-0-2/3--0-------------------/6-5-3-0------------|


[Verse] 

(is again played twice.) 

D|--0--0-----0--------0--0-----0----------------------------------------------|
B|----------------------------------------------------------------------------|
F|----------------------------------------------------------------------------|
D|--3--2--2-----0-------------------------------------------------------------|
A|-----------------3-----2--2-----0----/5-----5\4---/5-----5\4----------------|
D|-------------------------------------/5-----5\4-0-/5-----5\4-0--------------|

This slide bit has a rhythm i cant be asked to put so just listen to the song.

Bit before the chorus, this is played twice like the verse.

D|--------0------0------------0------0-----------|
B|-----------------------------------------------|
F|------------------------------------------1----|
D|-----0------------0------0------------0---0----|
A|-----------------------------------------------|
D|0/8---------8---------7---------7---------0----|


[Chorus]

D|----------------------------------------------------------------------------|    
B|----------------------------------------------------------------------------|    
F|----------------------------------------------------------------------------|
D|---/7--7--7-7--7--7-7--7--6----5-5-5-5-0-5\---------------------------------|
A|---/7--7--7-7--7--7-7--7--6--0-5-5-5-5-0-5\---------------------------------|
D|--0/7--7--7-7--7--7-7--7--6--0-5-5-5-5-0-5\---------------------------------|

Main riff after chorus again, played once.

D|----0--------0------0--------0--------0--------0--0-------------------------|    
B|----------------------------------------------------------------------------|    
F|----------------------------------------------------------------------------|
D|-----------0---------------------------------0------------------------------|
A|------0-3-----3/5-3-0-/6-5-3-0-2/3------0-3-------5-3-0-/6-5-3-0------------|
D|--0-------------------/6-5-3-0-2/3--0-------------------/6-5-3-0------------|


[Solo]

(this is played twice, all notes are played with the slide.)

D|--/12---11-----7------/10---9-----5-----------------------------------------|    
B|----------------------------------------------------------------------------|    
F|----------------------------------------------------------------------------|
D|--------------------------------------/5--5--5--5\4---/5--5--5--5\4---------|
A|--------------------------------------/5--5--5--5\4---/5--5--5--5\4---------|
D|--------------------------------------/5--5--5--5\4-0-/5--5--5--5\4-0-------| 


[Interlude]

(after the solo, this is played twice.)

D|----------------------------------------------------------------------------|
B|----------------------------------------------------------------------------|  Let notes ring
F|-1-------------------------------------1------------------------------------|
D|-0-------------------------------------0------------------------------------|
A|----------------------------------------------------------------------------|
D|-0-------------------------------------0------------------------------------|

what ever this is called?

D|-------------------------------0--------0------0--------0-------------------|
B|----------------------------------------------------------------------------|  This is also a loop 
F|----------------------------------------------------------------------------|  that repeats itself
D|--5--5--5--5-0-5--5--5--5\------------0-------------------------------------|  2 times.
A|--5--5--5--5-0-5--5--5--5\-------0-3-----3/5-3-0-/6-5-3-0-2/3---------------|
D|--5--5--5--5-0-5--5--5--5\---0-------------------/6-5-3-0-2/3---------------|
 These notes are played with slide.

After the riff above has been played 1.5 times this is the extra bit that is put on the end.

D|----0--------0------0--------0----------------------------------------------|
B|----------------------------------------------------------------------------|   
F|----------------------------------------------------------------------------|  
D|-----------0-------------------------7---7---7--7---------------------------|
A|------0-3-----3/5-3-0-/6-5-3-0-2/3---7---7---7--7----------------6-5-3-2-0--|
D|--0-------------------/6-5-3-0-2/3---7---7---7--7----------------6-5-3-2-0--|

Then it goes into the end with the howling bit but i dont know that yet so i cant put it in.

Sources: YouTube videos of him live, and spotify on constant loops as i learnt it.

            
            
Suggest correction
Creating personal tab
Creating personal tab
You can edit any tab online and save it as your Personal.

You can edit, replace or remove any tab part or add personal notes – all changes will be seen only by you.

Personal tabs can be accessed anytime from any device, even offline.
Learn more »
comments
print report bad tab
guest
You may want to rate the tab now too:
select rating
Wanna post a correction for this tab? Suggest correction