Oops, an error
Loading. Please wait.

Like Real People Do tab

version 4
version 4

Whole song

  • This version is easier for novices to understand w... Show more
  • Updated Ver 2 by Gossy07 for G B D G B E tuning. T... Show more
by Hozier
607 views 3 this week
no commentswrite comment
1 2 3 4 5
1 last vote to show rating
add to favorites
×
Save as Personal and add changes to this tab that will be seen only by you. Learn more ›
×
You can save this tab as Personal to edit and correct it or add notes. All changes will be seen only by you. Learn more »
launch autoscroll
font size
0
reset
how to read this tab
guitar tuner
edit
Autoscroll
slow
fast
+/-
esc
set tempo
stop
Author
Difficulty
About this tab version
Updated Ver 2 by Gossy07 for G B D G B E tuning. The Open Tuning made the piece easier to play because it eliminated the need to fret the droning G on the sixth string. Was this info helpful? Yes No
Time signature: 3/4

Tuning: G(+3) B(+2) D G B E

Song Structure: Intro, Pre-verse, Verse, Chorus, Pre-verse, Verse, Chorus, Pre-verse, Chorus, Outro

Intro

| 1   +   2   +   3   +   | 1   +   2   +   3   +   | 1   +   2   +   3   +   | 1   +   2   +   3   +   |
|-0-----------------------|-------------------------|-------------------------|-------------------------|
|---------3-------0-------|-------------------------|-------------------------|-------------------------|
|-------------------------|-0h2---------0-----------|-4p2p0-----------0-------|-------------------------|
|-------------------------|-------------------------|---------2---------------|-0-----------------------|
|-------------------------|-------------------------|-------------------------|-------------0-----------|
|-0-------0-------0-------|-0-------0-------0-------|-0-------0-------0-------|-0-------0-------0-------|


| 1   +   2   +   3   +   | 1   +   2   +   3   +   | 1   +   2   +   3   +   | 1   +   2   +   3   +   |
|-------------------------|-------------------------|-------------------------|-------------------------|
|-0-----------------------|-------------------------|-0-----------------------|-------------------------|
|---------2-------0-------|-------------0-----------|---------2-------0-------|-0-----------0-----------|
|-------------------------|-0h2---------------------|-------------------------|-------------------------|
|-------------------------|-------------------------|-------------------------|-------------------------|
|-0-------0-------0-------|-0-------0-------0-------|-0-------0-------0-------|-0-------0-------0-------|

Pre Verse

| 1   +   2   +   3   +   | 1   +   2   +   3   +   | 1   +   2   +   3   +   | 1   +   2   +   3   +   |
|-0-----------------------|-------------------------|-------------------------|-------------------------|
|---------3-------0-------|-------------------------|-------------------------|-------------------------|
|-------------------------|-0h2---------0-----------|-4p2p0-----------0-------|-------------------------|
|-------------------------|-------------------------|---------2---------------|-0-----------------------|
|-------------------------|-------------------------|-------------------------|-------------0-----------|
|-0-------0-------0-------|-0-------0-------0-------|-0-------0-------0-------|-0-------0-------0-------|


| 1   +   2   +   3   +   | 1   +   2   +   3   +   | 1   +   2   +   3   +   | 1   +   2   +   3   +   |
|-------------------------|-------------------------|-------------------------|-------------------------|
|-0-----------------------|-------------------------|-------------------------|-------------------------|
|---------2-------0-------|-------------0-----------|-2h4p2-----------2-------|-0-----------0-----------|
|-------------------------|-0h2---------------------|-------------------------|-------------------------|
|-------------------------|-------------------------|-------------------------|-------------------------|
|-0-------0-------0-------|-0-------0-------0-------|-0-------0-------0-------|-0-------0-------0-------|

Verse

  I      had      a        thought,    dear          How      ev  -  er         scar  -  y

| 1   +   2   +   3   +   | 1   +   2   +   3   +   | 1   +   2   +   3   +   | 1   +   2   +   3   +   |
|-0-----------------------|-------------------------|-------------------------|-------------------------|
|---------3-------0-------|-------------------------|---------0-------3-------|-0-----------------------|
|-------------------------|-2-----------0-----------|-2-----------------------|-------------2-----------|
|-------------------------|-------------------------|-------------------------|-------------------------|
|-------------------------|-------------------------|-------------------------|-------------------------|
|-0-------0-------0-------|-0-------0-------0-------|-0-------0-------0-------|-0-------0-------0-------|


  A  -  bout     that       night       The           bugs   and     the        dirt

| 1   +   2   +   3   +   | 1   +   2   +   3   +   | 1   +   2   +   3   +   | 1   +   2   +   3   +   |
|-------------------------|-------------------------|-------------------------|-------------------------|
|---------0-------3-------|-0-----------------------|---------0---------------|-------------------------|
|-2-----------------------|-------------2-----------|-2---------------2-------|-0-----------0-----------|
|-------------------------|-------------------------|-------------------------|-------------------------|
|-------------------------|-------------------------|-------------------------|-------------------------|
|-0-------0-------0-------|-0-------0-------0-------|-0-------0-------0-------|-0-------0-------0-------|

 
  Why    were    you        dig  -  ging?             What    did    you       bury?

| 1   +   2   +   3   +   | 1   +   2   +   3   +   | 1   +   2   +   3   +   | 1   +   2   +   3   +   |
|-0-----------------------|-------------------------|-------------------------|-------------------------|
|---------3-------0-------|-------------------------|---------0-------3-------|-0-----------------------|
|-------------------------|-2-----------0-----------|-2-----------------------|-------------2-----------|
|-------------------------|-------------------------|-------------------------|-------------------------|
|-------------------------|-------------------------|-------------------------|-------------------------|
|-0-------0-------0-------|-0-------0-------0-------|-0-------0-------0-------|-0-------0-------0-------|

  Be  -  fore     those    hands     pulled           me     From    the        earth?

| 1   +   2   +   3   +   | 1   +   2   +   3   +   | 1   +   2   +   3   +   | 1   +   2   +   3   +   |
|-------------------------|-------------------------|-------------------------|-------------------------|
|---------0-------3-------|-0-----------------------|---------0---------------|-------------------------|
|-2-----------------------|-------------2-----------|-2---------------2-------|-0-----------0-----------|
|-------------------------|-------------------------|-------------------------|-------------------------|
|-------------------------|-------------------------|-------------------------|-------------------------|
|-0-------0-------0-------|-0-------0-------0-------|-0-------0-------0-------|-0-------0-------0-------|


Chorus

  I      will    not        ask        you            where      you           came        from

| 1   +   2   +   3   +   | 1   +   2   +   3   +   | 1   +   2   +   3   +   | 1   +   2   +   3   +   |
|-------------------------|-------------------------|-------------------------|-------------------------|
|-------------------------|-------------------------|-------------------------|-------------------------|
|-0-----------------------|-------------------------|-------------------------|-------------------------|
|---------4-------2-------|-0-----------------------|-0-----------2-----------|-0-----------------------|
|-------------------------|-------------0-----------|-------------------------|-------------0-----------|
|-0-------0-------0-------|-0-------0-------0-------|-0-------0-------0-------|-0-------0-------0-------|


  I      will     not       ask                      and    neither  should     you

| 1   +   2   +   3   +   | 1   +   2   +   3   +   | 1   +   2   +   3   +   | 1   +   2   +   3   +   |
|-------------------------|-------------------------|-------------------------|-------------------------|
|-------------------------|-------------------------|-------------------------|-------------------------|
|-0-----------------------|-------------------------|-------------------------|-0-----------0-----------|
|---------4-------2-------|-0-----------------------|-0-------2-------4-------|-------------------------|
|-------------------------|-------------0-----------|-------------------------|-------------------------|
|-0-------0-------0-------|-0-------0-------0-------|-0-------0-------0-------|-0-------0-------0-------|


  Ho  -  ney      just      put       your            sweet  lips     on       my      lips

| 1   +   2   +   3   +   | 1   +   2   +   3   +   | 1   +   2   +   3   +   | 1   +   2   +   3   +   |
|-0-----------------------|-------------------------|-------------------------|-------------------------|
|---------3-------0-------|-------------------------|-0-----------------------|-------------------------|
|-------------------------|-2-----------0-----------|---------2-------0-------|-------------0-----------|
|-------------------------|-------------------------|-------------------------|-2-----------------------|
|-------------------------|-------------------------|-------------------------|-------------------------|
|-0-------0-------0-------|-0-------0-------0-------|-0-------0-------0-------|-0-------0-------0-------|

  
  We    should    just      kiss   like              real    peo  -  ple        do

| 1   +   2   +   3   +   | 1   +   2   +   3   +   | 1   +   2   +   3   +   | 1   +   2   +   3   +   |
|-------------------------|-------------------------|-------------------------|-------------------------|
|-0-----------------------|-------------------------|-0-----------------------|-------------------------|
|---------2-------0-------|-------------0-----------|---------2-------0-------|-0-----------0-----------|
|-------------------------|-2-----------------------|-------------------------|-0-----------------------|
|-------------------------|-------------------------|-------------------------|-------------------------|
|-0-------0-------0-------|-0-------0-------0-------|-0-------0-------0-------|-0-------0-------0-------|


Pre Verse

| 1   +   2   +   3   +   | 1   +   2   +   3   +   | 1   +   2   +   3   +   | 1   +   2   +   3   +   |
|-0-----------------------|-------------------------|-------------------------|-------------------------|
|---------3-------0-------|-------------------------|-------------------------|-------------------------|
|-------------------------|-0h2---------0-----------|-4p2p0-----------0-------|-------------------------|
|-------------------------|-------------------------|---------2---------------|-0-----------------------|
|-------------------------|-------------------------|-------------------------|-------------0-----------|
|-0-------0-------0-------|-0-------0-------0-------|-0-------0-------0-------|-0-------0-------0-------|


| 1   +   2   +   3   +   | 1   +   2   +   3   +   | 1   +   2   +   3   +   | 1   +   2   +   3   +   |
|-------------------------|-------------------------|-------------------------|-------------------------|
|-0-----------------------|-------------------------|-------------------------|-------------------------|
|---------2-------0-------|-------------0-----------|-2h4p2-----------2-------|-0-----------0-----------|
|-------------------------|-0h2---------------------|-------------------------|-------------------------|
|-------------------------|-------------------------|-------------------------|-------------------------|
|-0-------0-------0-------|-0-------0-------0-------|-0-------0-------0-------|-0-------0-------0-------|


Verse

   I    know     that      look        dear          Eyes    always  see   -   king

| 1   +   2   +   3   +   | 1   +   2   +   3   +   | 1   +   2   +   3   +   | 1   +   2   +   3   +   |
|-0-----------------------|-------------------------|-------------------------|-------------------------|
|---------3-------0-------|-------------------------|---------0-------3-------|-0-----------------------|
|-------------------------|-2-----------0-----------|-2-----------------------|-------------2-----------|
|-------------------------|-------------------------|-------------------------|-------------------------|
|-------------------------|-------------------------|-------------------------|-------------------------|
|-0-------0-------0-------|-0-------0-------0-------|-0-------0-------0-------|-0-------0-------0-------|


  Was    there    in       some        one           That     dug     long     ago

| 1   +   2   +   3   +   | 1   +   2   +   3   +   | 1   +   2   +   3   +   | 1   +   2   +   3   +   |
|-------------------------|-------------------------|-------------------------|-------------------------|
|---------0-------3-------|-0-----------------------|---------0---------------|-------------------------|
|-2-----------------------|-------------2-----------|-2---------------2-------|-0-----------0-----------|
|-------------------------|-------------------------|-------------------------|-------------------------|
|-------------------------|-------------------------|-------------------------|-------------------------|
|-0-------0-------0-------|-0-------0-------0-------|-0-------0-------0-------|-0-------0-------0-------|


  I      will     not       ask        you           Why     you     were       creep  -  ing
| 1   +   2   +   3   +   | 1   +   2   +   3   +   | 1   +   2   +   3   +   | 1   +   2   +   3   +   |
|-0-----------------------|-------------------------|-------------------------|-------------------------|
|---------3-------0-------|-------------------------|---------0-------3-------|-0-----------------------|
|-------------------------|-2-----------0-----------|-2-----------------------|-------------2-----------|
|-------------------------|-------------------------|-------------------------|-------------------------|
|-------------------------|-------------------------|-------------------------|-------------------------|
|-0-------0-------0-------|-0-------0-------0-------|-0-------0-------0-------|-0-------0-------0-------|

 
  In     some    sad       way          I             al  =  read  -  y         know
| 1   +   2   +   3   +   | 1   +   2   +   3   +   | 1   +   2   +   3   +   | 1   +   2   +   3   +   |
|-------------------------|-------------------------|-------------------------|-------------------------|
|---------0-------3-------|-0-----------------------|---------0---------------|-------------------------|
|-2-----------------------|-------------2-----------|-2---------------2-------|-0-----------0-----------|
|-------------------------|-------------------------|-------------------------|-------------------------|
|-------------------------|-------------------------|-------------------------|-------------------------|
|-0-------0-------0-------|-0-------0-------0-------|-0-------0-------0-------|-0-------0-------0-------|


Chorus

  I      will    not        ask        you            where      you           came        from

| 1   +   2   +   3   +   | 1   +   2   +   3   +   | 1   +   2   +   3   +   | 1   +   2   +   3   +   |
|-------------------------|-------------------------|-------------------------|-------------------------|
|-------------------------|-------------------------|-------------------------|-------------------------|
|-0-----------------------|-------------------------|-------------------------|-------------------------|
|---------4-------2-------|-0-----------------------|-0-----------2-----------|-0-----------------------|
|-------------------------|-------------0-----------|-------------------------|-------------0-----------|
|-0-------0-------0-------|-0-------0-------0-------|-0-------0-------0-------|-0-------0-------0-------|


  I      will     not       ask                      and    neither  should     you

| 1   +   2   +   3   +   | 1   +   2   +   3   +   | 1   +   2   +   3   +   | 1   +   2   +   3   +   |
|-------------------------|-------------------------|-------------------------|-------------------------|
|-------------------------|-------------------------|-------------------------|-------------------------|
|-0-----------------------|-------------------------|-------------------------|-0-----------0-----------|
|---------4-------2-------|-0-----------------------|-0-------2-------4-------|-------------------------|
|-------------------------|-------------0-----------|-------------------------|-------------------------|
|-0-------0-------0-------|-0-------0-------0-------|-0-------0-------0-------|-0-------0-------0-------|


  Ho  -  ney      just      put       your            sweet  lips     on       my      lips

| 1   +   2   +   3   +   | 1   +   2   +   3   +   | 1   +   2   +   3   +   | 1   +   2   +   3   +   |
|-0-----------------------|-------------------------|-------------------------|-------------------------|
|---------3-------0-------|-------------------------|-0-----------------------|-------------------------|
|-------------------------|-2-----------0-----------|---------2-------0-------|-------------0-----------|
|-------------------------|-------------------------|-------------------------|-2-----------------------|
|-------------------------|-------------------------|-------------------------|-------------------------|
|-0-------0-------0-------|-0-------0-------0-------|-0-------0-------0-------|-0-------0-------0-------|

  
  We    should    just      kiss   like              real    peo  -  ple        do

| 1   +   2   +   3   +   | 1   +   2   +   3   +   | 1   +   2   +   3   +   | 1   +   2   +   3   +   |
|-------------------------|-------------------------|-------------------------|-------------------------|
|-0-----------------------|-------------------------|-0-----------------------|-------------------------|
|---------2-------0-------|-------------0-----------|---------2-------0-------|-0-----------0-----------|
|-------------------------|-2-----------------------|-------------------------|-0-----------------------|
|-------------------------|-------------------------|-------------------------|-------------------------|
|-0-------0-------0-------|-0-------0-------0-------|-0-------0-------0-------|-0-------0-------0-------|


Pre Verse

| 1   +   2   +   3   +   | 1   +   2   +   3   +   | 1   +   2   +   3   +   | 1   +   2   +   3   +   |
|-0-----------------------|-------------------------|-------------------------|-------------------------|
|---------3-------0-------|-------------------------|-------------------------|-------------------------|
|-------------------------|-0h2---------0-----------|-4p2p0-----------0-------|-------------------------|
|-------------------------|-------------------------|---------2---------------|-0-----------------------|
|-------------------------|-------------------------|-------------------------|-------------0-----------|
|-0-------0-------0-------|-0-------0-------0-------|-0-------0-------0-------|-0-------0-------0-------|


| 1   +   2   +   3   +   | 1   +   2   +   3   +   | 1   +   2   +   3   +   | 1   +   2   +   3   +   |
|-------------------------|-------------------------|-------------------------|-------------------------|
|-0-----------------------|-------------------------|-------------------------|-------------------------|
|---------2-------0-------|-------------0-----------|-2h4p2-----------2-------|-0-----------0-----------|
|-------------------------|-0h2---------------------|-------------------------|-------------------------|
|-------------------------|-------------------------|-------------------------|-------------------------|
|-0-------0-------0-------|-0-------0-------0-------|-0-------0-------0-------|-0-------0-------0-------|


Chorus

  I      will    not        ask        you            where      you           came        from

| 1   +   2   +   3   +   | 1   +   2   +   3   +   | 1   +   2   +   3   +   | 1   +   2   +   3   +   |
|-------------------------|-------------------------|-------------------------|-------------------------|
|-------------------------|-------------------------|-------------------------|-------------------------|
|-0-----------------------|-------------------------|-------------------------|-------------------------|
|---------4-------2-------|-0-----------------------|-0-----------2-----------|-0-----------------------|
|-------------------------|-------------0-----------|-------------------------|-------------0-----------|
|-0-------0-------0-------|-0-------0-------0-------|-0-------0-------0-------|-0-------0-------0-------|


  I      will     not       ask                      and    neither  should     you

| 1   +   2   +   3   +   | 1   +   2   +   3   +   | 1   +   2   +   3   +   | 1   +   2   +   3   +   |
|-------------------------|-------------------------|-------------------------|-------------------------|
|-------------------------|-------------------------|-------------------------|-------------------------|
|-0-----------------------|-------------------------|-------------------------|-0-----------0-----------|
|---------4-------2-------|-0-----------------------|-0-------2-------4-------|-------------------------|
|-------------------------|-------------0-----------|-------------------------|-------------------------|
|-0-------0-------0-------|-0-------0-------0-------|-0-------0-------0-------|-0-------0-------0-------|


  Ho  -  ney      just      put       your            sweet  lips     on       my      lips

| 1   +   2   +   3   +   | 1   +   2   +   3   +   | 1   +   2   +   3   +   | 1   +   2   +   3   +   |
|-0-----------------------|-------------------------|-------------------------|-------------------------|
|---------3-------0-------|-------------------------|-0-----------------------|-------------------------|
|-------------------------|-2-----------0-----------|---------2-------0-------|-------------0-----------|
|-------------------------|-------------------------|-------------------------|-2-----------------------|
|-------------------------|-------------------------|-------------------------|-------------------------|
|-0-------0-------0-------|-0-------0-------0-------|-0-------0-------0-------|-0-------0-------0-------|

  
  We    should    just      kiss   like              real    peo  -  ple        do

| 1   +   2   +   3   +   | 1   +   2   +   3   +   | 1   +   2   +   3   +   | 1   +   2   +   3   +   |
|-------------------------|-------------------------|-------------------------|-------------------------|
|-0-----------------------|-------------------------|-0-----------------------|-------------------------|
|---------2-------0-------|-------------0-----------|---------2-------0-------|-0-----------0-----------|
|-------------------------|-2-----------------------|-------------------------|-0-----------------------|
|-------------------------|-------------------------|-------------------------|-------------------------|
|-0-------0-------0-------|-0-------0-------0-------|-0-------0-------0-------|-0-------0-------0-------|


Outro

| 1   +   2   +   3   +   | 1   +   2   +   3   +   | 1   +   2   +   3   +   | 1   +   2   +   3   +   |
|-12------10------7-------|-5-----------3-----------|-7-------5-------3-------|-0-----------------------|
|-------------------------|-------------------------|-------------------------|-------------3-----------|
|-0-------0-------0-------|-0-------0-------0-------|-0-------0-------0-------|-0-------0-------0-------|
|-------------------------|-------------------------|-------------------------|-------------------------|
|-------------------------|-------------------------|-------------------------|-------------------------|
|-------------------------|-------------------------|-------------------------|-------------------------|


| 1   +   2   +   3   +   | 1   +   2   +   3   +   | 1   +   2   +   3   +   | 1   +   2   +   3   +   |
|-7-------5-------3-------|-0-----------------------|-0-------3-------5-------|-3-----------3-----------|
|-------------------------|-------------3-----------|-------------------------|-------------------------|
|-0-------0-------0-------|-0-------0-------0-------|-0-------0-------0-------|-0-------0-------0-------|
|-------------------------|-------------------------|-------------------------|-------------------------|
|-------------------------|-------------------------|-------------------------|-------------------------|
|-------------------------|-------------------------|-------------------------|-------------------------|


| 1   +   2   +   3   +   | 1   +   2   +   3   +   | 1   +   2   +   3   +   | 1   +   2   +   3   +   |
|-12------10------7-------|-5-----------3-----------|-7p5p3---0-------3-------|-0-----------------------|
|-------------------------|-------------------------|-------------------------|-------------3-----------|
|-0-------0-------0-------|-0-------0-------0-------|-0-------0-------0-------|-0-------0-------0-------|
|-------------------------|-------------------------|-------------------------|-------------------------|
|-------------------------|-------------------------|-------------------------|-------------------------|
|-------------------------|-------------------------|-------------------------|-------------------------|






| 1   +   2   +   3   +   | 1   +   2   +   3   +   | 1   +   2   +   3   +   | 1   +   2   +   3   +   |
|-7-------5-------3-------|-0-----------------------|-0-------3-------5-------|-3-----------3-----------|
|-------------------------|-------------3-----------|-------------------------|-------------------------|
|-0-------0-------0-------|-0-------0-------0-------|-0-------0-------0-------|-0-------0-------0-------|
|-------------------------|-------------------------|-------------------------|-------------------------|
|-------------------------|-------------------------|-------------------------|-------------------------|
|-------------------------|-------------------------|-------------------------|-------------------------|


| 1   +   2   +   3   +   | 1   +   2   +   3   +   | 1   +   2   +   3   +   | 1   +   2   +   3   +   |
|-0-----------------------|-------------------------|-------------------------|-------------------------|
|---------3-------0-------|-------------------------|-------------------------|-------------------------|
|-------------------------|-0h2---------0-----------|-4p2p0-----------0-------|-------------------------|
|-------------------------|-------------------------|---------2---------------|-0-----------------------|
|-------------------------|-------------------------|-------------------------|-------------0-----------|
|-------------------------|-------------------------|-------------------------|-------------------------|

                                                                             (12th Fret Harmonics sound cool.)
| 1   +   2   +   3   +   | 1   +   2   +   3   +   | 1   +   2   +   3   +   | 1   +   2   +   3   +   |
|-------------------------|-------------------------|-------------------------|-------------------------|
|-0-----------------------|-------------------------|-------------------------|-------------------------|
|---------2-------0-------|-------------0h2---------|-2h4p2-------0h2---------|-0-----------------------|
|-------------------------|-0h2---------------------|-------------------------|-0-----------------------|
|-------------------------|-------------------------|-------------------------|-0-----------------------|
|-------------------------|-------------------------|-------------------------|-0-----------------------|

            
            
Suggest correction
Creating personal tab
Creating personal tab
You can edit any tab online and save it as your Personal.

You can edit, replace or remove any tab part or add personal notes – all changes will be seen only by you.

Personal tabs can be accessed anytime from any device, even offline.
Learn more »
Give kudos to tab author, rate the tab!
1 2 3 4 5
comments
print report bad tab
guest
You may want to rate the tab now too:
select rating
Wanna post a correction for this tab? Suggest correction