Oops, an error
Loading. Please wait.

Someone New Acoustic chords

version 4
version 4

Whole song

by Hozier
3,694 views 81 this week
no commentswrite comment
1 2 3 4 5
x 5
add to favorites
×
Save as Personal and add changes to this tab that will be seen only by you. Learn more ›
×
You can save this tab as Personal to edit and correct it or add notes. All changes will be seen only by you. Learn more »
launch autoscroll
font size
0
reset
transpose
0
reset
simplify chords
display chords
guitar tuner
edit
Autoscroll
slow
fast
+/-
esc
set tempo
stop
Author
Difficulty
intermediate
Strumming
There is no strumming pattern for this song yet. and get +5 IQ
Someone New
                                              by Hozier
                                         Interpreted by dewis

[Intro]

    G(iii)   Bm   C(iii)  D
e|-----3------2-----3-----x-----|
B|-----3------3-----5-----3-----|
G|-----4------4-----5-----2-----|
D|-----5------4-----5-----0-----|
A|-----5------2-----3-----x-----|
E|-----3------2-----3-----x-----|


[Verse]

    G(iii)   Bm  C(iii)   D  Em(vii) D(v)  Bm  C(iii)
e|-----3------2-----3-----x-----7-----5-----2-----3----|
B|-----3------3-----5-----3-----8-----7-----3-----5----|
G|-----4------4-----5-----2-----9-----7-----4-----5----|
D|-----5------4-----5-----0-----9-----7-----4-----5----|
A|-----5------2-----3-----x-----7-----5-----2-----3----|
E|-----3------2-----3-----x-----7-----5-----2-----3----|


[Pre-Chorus]

    C7(iii) Bm7 Em7(vii) Dm7(v) C(iii) C7(iii)
e|-----3-----2-----7------5------3------3------|
B|-----5-----3-----8------6------5------5------|
G|-----3-----2-----7------5------5------3------|
D|-----5-----4-----9------7------5------5------|
A|-----3-----2-----7------5------3------3------|
E|-----3-----2-----7------5------3------3------|


[Chorus 1]

    G(iii)   Bm   C(iii)  D
e|-----3------2-----3-----x-----|
B|-----3------3-----5-----3-----|
G|-----4------4-----5-----2-----|
D|-----5------4-----5-----0-----|
A|-----5------2-----3-----x-----|
E|-----3------2-----3-----x-----|


[Bridge]

      Am(v)  Em    C7    B7    Em    C7     B7     Em
e|-----5------0-----0-----0-----0-----0------0------0-----|
B|-----5------0-----1-----0-----0-----1------0------0-----|
G|-----5------0-----3-----2-----0-----3------2------0-----|
D|-----7------2-----2-----1-----2-----2------1------2-----|
A|-----7------2-----3-----2-----2-----3------2------2-----|
E|-----5------0-----0-----0-----0-----0------0------0-----|


[Chorus 2]

      Am     Em    C/G   C7    Bm7    D
e|-----0------0-----0-----0-----2-----x-----|
B|-----1------0-----1-----1-----3-----3-----|
G|-----2------0-----0-----3-----2-----2-----|
D|-----2------2-----2-----2-----4-----0-----|
A|-----0------2-----3-----3-----2-----x-----|
E|-----0------0-----3-----0-----2-----x-----|


[Outro]

    G(iii)   Bm   C(iii)  D
e|-----3------2-----3-----x-----|
B|-----3------3-----5-----3-----|
G|-----4------4-----5-----2-----|
D|-----5------4-----5-----0-----|
A|-----5------2-----3-----x-----|
E|-----3------2-----3-----x-----|


[Intro]

(Pluck)
G(iii)      Bm  C(iii)     D
G(iii)      Bm  C(iii)     D


[Verse 1]

G(iii)        Bm    C(iii)        D
  Go on take this the wrong way
ii->Em(vii)      D(v)        Bm   C(iii) 
  You knew who I was every step that I ran to you
G(iii)    Bm C(iii)        D
 Only blue or black days
ii->Em(vii)      D(v)              G(iii)           C
Electing strange perfections in any stranger I choose


[Pre-Chorus]

C7(iii)            Bm7                    ii->Em7(vii) 
    Would things be easier if there was a right way
Dm7(v)               C    C7(iii)
Honey there is no right way


[Chorus 1]

         G(iii)                        Bm    C(iii)
And so |: I fall in love just a little oh a little bit
                    D
every day with someone new :| x 4


[Verse 2]

G(iii)             Bm    C(iii)           D
  There's an art to life's distractions
ii->Em(vii)          D(v)                  Bm      C(iii)
  To somehow escape the burning wait the art of scraping through
G(iii)      Bm   C(iii)    D
 Some like to imagine
ii->Em(vii)        D(v)         G(iii)         C(iii)
The dark caress of someone else I guess any thrill will do


[Pre-Chorus]

C7(iii)             Bm7                    ii->Em7(vii) 
    Would things be easier if there was a right way
Dm7(v)               C      C7(iii)
Honey there is no right way


[Chorus 1]

         G(iii)                       Bm           C(iii)
And so |:I fall in love just a little oh a little bit
                    D
every day with someone new:| x 4


[Bridge]

Am(v)                          Em
I wake at the first cringe of morning
C7       B7      Em 
  And my heart's already sinned
    C7                  B7                Em
How pure, How sweet a love Aretha, that you would pray for him


[Chorus 2]

(1 Pluck/Alternate Leadoff Chords)
                  Am/Em/Am/Em
'Cause God knows |:I fall in love just a little oh a little bit
                  
every day with someone new:| x 4
C/G                              
I fall in love just a little oh a little bit
C7             
every day with someone new
Bm
I fall in love just a little oh a little bit
D
every day


[Outro]

G(iii)           Bm          C(iii)                 D
|:Love with every stranger the stranger the better:| x 4
G(iii)                         Bm         C(iii)                   D
|:I fall in love just a little oh a little bit every day with someone new:| x 3
G(iii)                       Bm          C(iii)                       
I fall in love just a little oh a little bit every day with someone new


Standing by for corrections - PAX VOBISCUM
Suggest correction
Creating personal tab
Creating personal tab
You can edit any tab online and save it as your Personal.

You can edit, replace or remove any tab part or add personal notes – all changes will be seen only by you.

Personal tabs can be accessed anytime from any device, even offline.
Learn more »
comments
print report bad tab
guest
You may want to rate the tab now too:
select rating
Wanna post a correction for this tab? Suggest correction