Oops, an error
Loading. Please wait.

To Be Alone Live tab

version 2
version 2

Whole song

by Hozier
7,174 views 252 this week
2 commentsread comments
1 2 3 4 5
x 8
add to favorites
×
Save as Personal and add changes to this tab that will be seen only by you. Learn more ›
×
You can save this tab as Personal to edit and correct it or add notes. All changes will be seen only by you. Learn more »
launch autoscroll
font size
0
reset
how to read this tab
guitar tuner
edit
Autoscroll
slow
fast
+/-
esc
set tempo
stop
-------------------------------------------------------------------------------
                             To Be Alone - Hozier
-------------------------------------------------------------------------------
Tabbed by:Dsades06 
E-mail:

Tuning:Standard with Capo on 1st fret
All notes are relative to the capo 


This is my first tab ever! I was playing with mhayes098 which was great but noticed in this video
https://www.youtube.com/watch?v=YpMhLOmkkFQ that he was doing a little more finger picking so I figured I would
tab what I saw. Hopefully this helps ! comments and feedback are welcome!

Intro/Verse Part 1
e|-------------0--3b-0--------------------------------------------------0----|
B|-----------3b---------3b-0-------------3----------------------------3b-----|
G|----------------------------2b------2/4--4\2-2b----2bp0--0-2--0------------|
D|------------------------------------0------------------2--------2----------|
A|---------------------------------------------------------------------------|
E|0-0-0-0-0--0--0-0---0-0---0-0-0-0-0-0---0----0-0-0-0---0-0--0-0--0--0------|

    Part 2
e|---------------------------------------------------------------------------|
B|---------------------------------------------------------------------------|
G|2bp0--0-2--0---0-2--0---0-2--0h2p0h2p0h2p0---------------------------------|
D|----2-------2--------2--------------------0h2p0h2p0h2p0h2p0h2p0------------|
A|---------------------------------------------------------------------------|
E|0---0-0--0-0-0-0--0-0-0-0--0-0--0--0--0--0--0--0--0--0---------------------|

He does Part 1 3 times and on "Honey when you kill the Lights" its part 1 and 2

Pre Chorus:

e|---------------------------------------------------------------------------|
B|---------------------------------------------------------------------------|
G|---------------------------------------------------------------------------|
D|5--4--2--0--2--4---2--2--2--2--2-5--4--2--0--2--4--4--4--4--4--4-----------|
A|-------------------2--2--2--2--2-------------------2--2--2--2--2-----------|
E|0-0-0-0-0-0-0-0-0--0-0-0-0-0-0-0-0-0-0-0-0-0-0-0-0-0-0-0-0-0-0-0-----------|

e|---------------------------------------------------------------------------|
B|---------------------------------------------------------------------------|
G|---------------------------------------------------------------------------|
D|5--4--2--0--2--4--4--4--4--4--4---5--4--2--0--2--4-2--2--2--2--2-----------|
A|------------------2--2--2--2--2--------------------2--2--2--2--2-----------|
E|0-0-0-0-0-0-0-0-0-0-0-0-0-0-0-0---0--0--0--0--0--0-0-0-0-0-0-0-0-----------|

Chorus:

e|---------------------------------------------------------------------------|
B|---------------------------------------------------------------------------|      For the 3 and 5 he is using
G|0----0--0-0-0x----------0--0-0-0x----------0-0-0---------------------------|      his thumb for base note
D|2----0--0-2-2x----------0--0-2-2x----------0-0-2---------------------------|      and index for the other 3
A|2----0--0-2-2x--6 times-0--0-2-2x--6 times-0-0-2---------------------------|
E|0----3--5-0-0x----------3--5-0-0x----------3-5-0---------------------------|

Repeat Part 1 for OOH OOH and then part 2

e|----------------------3b-0--------------------------------------------------------------------------|
B|3---------------------------3b-0--------------------------------------------------------------------|
G|0---------------------------------0h2-0h2------2/4-3-3-3-3-3-3-3-3-4\2---pb2-pb2-pb2----------------|
D|--DONT LET RING--------------------------------0-------------------0------------------0h2p0-0h2p0---|
A|----------------------------------------------------------------------------------------------------|
E|0--------------0-0-0-0--0-0-0-0-0-0---0--0-0-0-0--0-0-0-0-0-0-0-0-0---0--0---0---0----0------0------|

"There are questions i cant ask" Play part 1 "Honey we should Run Away" is combined Part 1 and 2

Then Pre Chorus for " I dont know what else i would do" 

Then Chorus 

Part 1 and then 2 for OOH OOH and then straight into Chorus




************************************

| /   slide up
| \   slide down
| h   hammer-on
| p   pull-off
| ~   vibrato
| +   harmonic
| x   Mute note
| b   Bend
| pb  Pre-bend
| br  Bend release
| pbr Pre-bend release
| brb Bend release bend

************************************

            
            
Suggest correction
Creating personal tab
Creating personal tab
You can edit any tab online and save it as your Personal.

You can edit, replace or remove any tab part or add personal notes – all changes will be seen only by you.

Personal tabs can be accessed anytime from any device, even offline.
Learn more »
comments
print report bad tab
2 comments total.
0 reply
iqbalzauqul 10 Apr 14, 2017 06:14 AM

Thank you! it is very accurate and better tuned than the other version.

0 reply
nnmmoollee 10 Jul 14, 2017 07:06 AM

on the riff part the series of 3's should be on the B string i think

guest
You may want to rate the tab now too:
select rating
Wanna post a correction for this tab? Suggest correction