Oops, an error
Loading. Please wait.

Work Song tab

version 1
version 1

Whole song

by Hozier
5,527 views 84 this week
no commentswrite comment
1 2 3 4 5
x 8
add to favorites
×
Save as Personal and add changes to this tab that will be seen only by you. Learn more ›
×
You can save this tab as Personal to edit and correct it or add notes. All changes will be seen only by you. Learn more »
launch autoscroll
font size
0
reset
how to read this tab
guitar tuner
edit
Autoscroll
slow
fast
+/-
esc
set tempo
stop
Author
Difficulty
Written by Jack Pickering

[Intro]

e|---------------------------------------------------------------------------|
B|---------------------------------------------------------------------------|
G|---------------------------------------------------------------------------|
D|---------------------------------------------------------------------------|
A|---------------------------------------------------------------------------|
E|-6--8--6--8--6--8--6--------6--8--6--8--6--8--6----------------------------|

you can Vibrato all of the song pretty much except mini riffs. Juts play along and then
you can decide what you think sounds best.


[Verse]

e|---------------------------------------------------------------------------|
B|---------------------------------------------------------------------------|
G|---------------------------------------------------------------------------|
D|---------------------------------------------------------------------------|
A|---------------------------------------------------------------------------|
E|-6--8--6--8--6--8--6--------6--8--6--8--6--8--6----------------------------|


[Chorus]

e|---------------------------------------------------------------------------|
B|---------------------------------------------------------------------------|
G|---------------------------------------------------------------------------|
D|---------------------------------------------------------------------------|
A|---------------------------------------------------------------------------|
E|-3----1----6------8--3----1----6-------------------------------------------|


[Verse 2]

e|---------------------------------------------------------------------------|
B|---------------------------------------------------------------------------|
G|---------------------------------------------------------------------------|
D|---------------------------------------------------------------------------|
A|---------------------------------------------------------------------------|
E|-6--8--6--8--6--8--6--------6--8--6--8--6--8--6----------------------------|


[Chorus 2]

e|---------------------------------------------------------------------------|
B|---------------------------------------------------------------------------|
G|---------------------------------------------------------------------------|x2
D|---------------------------------------------------------------------------|
A|---------------------------------------------------------------------------|
E|-3----1----6------8--3----1----6-------------------------------------------| 


[Verse 3]

e|-------------------------------------------------3-3-1/6-------------------|
B|----------------------------------------------------------3\1--------------|
G|---------------------3-3---3-3--------------------------------3------------|
D|------------------------5--------------------------------------------------|
A|---------------------------------------------------------------------------|
E|-6--8--6--8--6--8--6--------------6--8--6--8--6----------------------------|
                     ^                          ^
you decide whether or not you want to play these 6s
where it is 3\1 slide to 1 from 3 but dont pick the string where as at 1/6 you do pick 6


[Chorus 3]

e|---------------------------------------------------------------------------|
B|---------------------------------------------------------------------------|
G|---------------------------------------------------------------------------|
D|---------------------------------------------------------------------------|
A|---------------------------------------------------------------------------|
E|-3----1----6------8--3----1----6-------------------------------------------| x2


[Outro]

e|---------------------------------------------------------------------------|
B|---------------------------------------------------------------------------|
G|---------------------------------------------------------------------------|
D|---------------------------------------------------------------------------|
A|---------------------------------------------------------------------------|
E|-6--8--6--8--6--8--6--8--6-------------------------------------------------|


************************************

| /   Slide up
| \   Slide down
| ~   Vibrato

************************************

            
            
Suggest correction
Creating personal tab
Creating personal tab
You can edit any tab online and save it as your Personal.

You can edit, replace or remove any tab part or add personal notes – all changes will be seen only by you.

Personal tabs can be accessed anytime from any device, even offline.
Learn more »
comments
print report bad tab
guest
You may want to rate the tab now too:
select rating
Wanna post a correction for this tab? Suggest correction