Oops, an error
Loading. Please wait.

Work Song Tab

version 2
version 2

Whole song

52 views 6 this week
no commentswrite comment
1 2 3 4 5
1 last vote to show rating
add to favorites
launch autoscroll
font size
0
reset
how to read this tab
guitar tuner
Autoscroll
slow
fast
+/-
esc
set tempo
stop
Help us to improve Ultimate-Guitar.com Take our survey!
×
Author
Difficulty
[Intro]

e|---------------------------------------------------------------------------|
B|---------------------------------------------------------------------------|
G|---------------------------------------------------------------------------|
D|---------------------------------------------------------------------------|
A|-1-----3--1-----3--1-----3--1----------------------------------------------|
E|-1-----3--1-----3--1-----3--1----------------------------------------------|
Be sure to really let your fingers slide across the strings and create that sound

[Verse]

e|---------------------------------------------------------------------------|
B|---------------------------------------------------------------------------|
G|---------------------------------------------------------------------------|
D|---------------------------------------------------------------------------|
A|-1---------3----1---------3----1---------3----1----------------------------|
E|-1---------3----1---------3----1---------3----1----------------------------|
    Boys working... Is that the... I just think...So full of love...
e|---------------------------------------------------------------------------|
B|---------------------------------------------------------------------------|
G|---------------------------------------------------------------------------|
D|---------------------------------------------------------------------------|
A|-1-------------3----1------------3----1-------------3----1-----------------|
E|-1-------------3----1------------3----1-------------3----1-----------------|
    Nothin sweeter... Never want once...My baby's sweet... She gives me...
(Same speed just more spacing so the words can fit)

[Full Verse:]
Boys working on empty, Is that the kind of way to face the burning heat?
I just think about my baby, I'm so full of love I could barely eat.
Nothing Sweeter than my baby, I'd never want once from the cherry tree.
Cause my baby's sweet as can be. She gives me toothache sjust from kissing me.

[Chorus]

e|---------------------------------------------------------------------------|
B|---------------------------------------------------------------------------|
G|---------------------------------------------------------------------------|
D|---------------------------------------------------------------------------|
A|---------------------------------------------------------------------------|
E|-3----1----6------8--3----1----6-------------------------------------------|

Repeat tab for second verses and chorus.

[Verse]

e|---------------------------------------------------------------------------|
B|---------------------------------------------------------------------------|
G|---------------------------------------------------------------------------|
D|---------------------------------------------------------------------------|
A|-1---------3----1---------3----1---------3----1----------------------------|
E|-1---------3----1---------3----1---------3----1----------------------------|
    Boys working... Is that the... I just think...So full of love...
e|---------------------------------------------------------------------------|
B|---------------------------------------------------------------------------|
G|---------------------------------------------------------------------------|
D|---------------------------------------------------------------------------|
A|-1-------------3----1------------3----1-------------3----1-----------------|
E|-1-------------3----1------------3----1-------------3----1-----------------|

Chorus]

e|---------------------------------------------------------------------------|
B|---------------------------------------------------------------------------|
G|---------------------------------------------------------------------------|
D|---------------------------------------------------------------------------|
A|---------------------------------------------------------------------------|
E|-3----1----6------8--3----1----6-------------------------------------------|
Suggest correction
Give kudos to tab author, rate the tab!
1 2 3 4 5
comments
print report bad tab
guest
You may want to rate the tab now too:
select rating
Wanna post a correction for this tab? Suggest correction