Oops, an error
Loading. Please wait.

La Chispa Adecuada Tab

version 1
version 1

Whole song

Interactive

9,430 views 1 this week
no commentswrite comment
1 2 3 4 5
please rate
add to favorites
launch autoscroll
font size
0
reset
how to read this tab
guitar tuner
Autoscroll
slow
fast
+/-
esc
set tempo
stop
Help us to improve Ultimate-Guitar.com Take our survey!
×
La chispa adecuada

   Esta es la introducción que se escucha al terminar parasiempre

Intro I
                                      A--|              A--|
|--0----------------------------------|-----------------|-------------------5---5-5-3-5-6-5-3--1h3p1--|
|--3----------------------------------|-----------------|-------------------3-------------------------|
|--2--2--3---5--5/7--5--5h7--5h7---7--7----5-7---7--9-9-9---7--5--5h7---2---2-------------------------|
|--0--------------------------------------------------------------------------------------------------|
|-----------------------------------------------------------------------------------------------------|
|-----------------------------------------------------------------------------------------------------|


|--0--1--0----------------------|
|-----------3--3---1---1h3--3---|
|-------------------------------|
|-------------------------------|
|-------------------------------|
|-------------------------------|


Intro II

            riff 1

             Dm                  Am                  Bb              F
|-----------|-------------------|-------------------|---------------|-----------|---------------|
|-----------|-------6-----5-----|------5h6--5-------|---------------|-----------|---------------|
|-----------|----7-----7-----5--|---5----------5----|---------------|--5-----5--|---------------|
|-----------|-------------------|-------------------|------8----10--|--5--------|---------------|
|--3---3/5--|5------------------|-------------------|----8----8-----|-----8-----|--3----3/5-----|
|-----------|-------------------|5----------------5-|6--------------|-----------|---------------|


                                                           end riff 1
  Dm                  Am                 Bb              F                         
|-------------------|-------5----------|---------------|------------|
|-------6-----5-----|-------5--5-------|---------------|------------|
|----7-----7-----5--|----5--------5----|---------------|--10--------|
|-------------------|------------------|------8----10--|--10----10--|
|-5-----------------|------------------|----8----8-----|-----8---8--|
|-------------------|--5-------------5-|-6-------------|------------|



            riff 2
             Dm                  Am                  Bb              F
|-----------|-------------------|-------------------|---------------|-----------|---------------|
|-----------|-------6-----5-----|------5h6--5-------|---------------|-----------|---------------|
|-----------|----7-----7-----5--|---5----------5----|---------------|--5-----5--|---------------|
|-----------|-------------------|-------------------|------8----10--|--5--------|---------------|
|--3---3/5--|5------------------|-------------------|----8----8-----|-----8-----|--3----3/5-----|
|-----------|-------------------|5----------------5-|6--------------|-----------|---------------|

                                                                   end riff 2
  Dm                  Am                 Bb              F                         
|-------------------|-------5----------|---------------|--------------------|
|-------6-----5-----|-------5--5-------|---------------|--6---6p5-----------|
|----7-----7-----5--|----5--------5----|---------------|--5--------7--------|
|-------------------|------------------|------8----10--|--------------7-----|
|-5-----------------|------------------|----8----8-----|-----------------8--|
|-------------------|--5-------------5-|-6-------------|--------------------|



Verse 1        
with riff 1  (4 times)  Dm  Am  Bb  F

 Las palabras fueron avispas
 y las calles como dunas
 cuando aún te espero llegar

 En un ataud cuardo tu tacto
 y una corona, con tu pelo enmarañado
 queriendo encontrar un arcoirir infinito


Chorus
riff 3-------------------------------------------------------------------end riff 3   
   D                F#m                 G              Dm7       A

|-----------------|-------------------|---------------|--------|-------------------|
|-3-----2----3-/--|-7---7--7----5--7--|--10--10--8--7-|7--8--7-|-2---3--3--2---3---|
|-----------------|-------------------|---------------|--------|-------------------|
|-----------------|-------------------|---------------|--------|-------------------|
|-----------------|-------------------|---------------|--------|-------------------|
|-----------------|-------------------|---------------|--------|-------------------|

   D                F#m                 G              Dm7       A

|-----------------|-------------------|---------------|--------|-------|
|-3-----2----3-/--|-7---7--7----5--7--|--10--10--8--7-|7--8--7-|-2-----|
|-----------------|-------------------|---------------|--------|-------|
|-----------------|-------------------|---------------|--------|-------|
|-----------------|-------------------|---------------|--------|-------|
|-----------------|-------------------|---------------|--------|-------|


Verse 2
riff 1
riff 2
riff 1 (2 times)

 Mis manos que aún son de hueso
 y tu vientre sabe a pan
 la catedral es tu cuerpo

 eras vernano y mil tormentas
 y yo el leon, que sonrie a las paredes
 que he vuelto a pintar del mismo color



Chorus 
Riff 3  (4 times)  D  F#m  G  Dm7  A

 No se distinguir entre besos y raicez
 No se distinguir lo complicado de lo simple
 y ahora estas en mi lista de promesas a olvidar
 todo arde si le aplicas la chispa adecuada


interlude
Rythm 1

   Dm            Dm7 Dm       Dm7  DM         Bmb7              Cm7

|--5--5--5----5---5-|-5---5---5----5----5--|---1---1---1---1---|--3---3---3---3--|
|--6--6--6----6---5-|-6---6---5----6----6--|---1---1---1---1---|--3---3---3---3--|
|--7--7--7----7---7-|-7---7---7----7----7--|---3---3---3---3---|--5---5---5---5--|
|--7--7--7----7---7-|-7---7---7----7----7--|---3---3---3---3---|--5---5---5---5--|
|--5--5--5----5---5-|-5---5---5----5----5--|---1---1---1---1---|--3---3---3---3--|
|--5--5--5----5---5-|-5---5---5----5----5--|---1---1---1---1---|--3---3---3---3--|

                                                                        end Rythm 1
   Dm            Dm7     Cm7                Bmb7               Cm7

|--5--5--5----5---5--5--|-3---3---3----3----|---1---1---1---1---|--3---3---3---3--|
|--6--6--6----6---5--6--|-3---3---3----3----|---1---1---1---1---|--3---3---3---3--|
|--7--7--7----7---7--7--|-5---5---5----5----|---3---3---3---3---|--5---5---5---5--|
|--7--7--7----7---7--7--|-5---5---5----5----|---3---3---3---3---|--5---5---5---5--|
|--5--5--5----5---5--5--|-3---3---3----3----|---1---1---1---1---|--3---3---3---3--|
|--5--5--5----5---5--5--|-3---3---3----3----|---1---1---1---1---|--3---3---3---3--|


repeat Rythm 1



Verse 3
Riff 1  (4 times)

 El fuego que era a veces propio
 la ceniza siempre ajena
 blanca esperma resbalando por la espina dorsal

 Ya somos mas viejos y sinceros
 y que mas da, si miramos la laguna
 como llaman a la eternidad
 de la ausencia.


Chorus 
Riff 3  (4 times)  D  F#m  G  Dm7  A

 No se distinguir entre besos y raicez
 No se distinguir lo complicado de lo simple
 y ahora estas en mi lista de promesas a olvidar
 todo arde si le aplicas la chispa adecuada



Suggest correction
What's this?
You can suggest a correction to this tab. Community and Mods will review your correction and vote to approve or reject it.
comments
We did not receive enough feedback on this tab! Please rate:
print report bad tab
1 2 3 4 5
guest
You may want to rate the tab now too:
select rating
Please do not post tabs as comments. Select "correction" instead!