Oops, an error
Loading. Please wait.

Tacones Baratos tab

by Huecco
101 views 1 this week
no commentswrite comment
1 2 3 4 5
3 more votes to show rating
add to favorites
×
Save as Personal and add changes to this tab that will be seen only by you. Learn more ›
×
You can save this tab as Personal to edit and correct it or add notes. All changes will be seen only by you. Learn more »
launch autoscroll
font size
0
reset
how to read this tab
guitar tuner
edit
Autoscroll
slow
fast
+/-
esc
set tempo
stop
RIFF 1
e ----------------------------------
B ----------------------------------
G --0-0--0--------------------------
D ---------1-0--0-1-0--0-1-3-1-0----
A ----------------------------------
E ----------------------------------

RIFF 2
e --------------------------------------
B --------------------------------------
G --7-7---7-7-7---7-7-7---7-7-7---7-----
D --7-7---7-7-7---7-7-7---7-7-7---7-----
A --5-5---5-5-5---5-5-5---5-5-5---5-----
E --------------------------------------

RIFF 3
e --------------------------------------
B --------------------------------------
G --------------------------------------
D --7-7---7-7-7---7-7-7---7-7-7---7-----
A --7-7---7-7-7---7-7-7---7-7-7---7-----
E --5-5---5-5-5---5-5-5---5-5-5---5-----

RIFF 4
e ---------------------------------------
B ---------------------------------------
G ---------------------------------------
D --7-7---7-7-7---7-7-7---7-7-7---7------
A --7-7---7-7-7---7-7-7---7-7-7---7------
E ---------------------------------------

RIFF 5
e ---------------------------------------
B ---------------------------------------
G ---------------------------------------
D --5-5-5-5-5-5-5-5-5-5-5-5-5-5-5-5------
A --5-5-5-5-5-5-5-5-5-5-5-5-5-5-5-5------
E ---------------------------------------

Nota: Los RIFF con asteriscos son iguales sólo que más rapidos.


RIFF 1
Hoy es el día de los muertos en vida
Donde este pobre corazón resucita
Cinco meses deborao por las termitas
Como esa podrida y vieja silla

Hoy vi cruzar a esa chica sencilla
Guapa de cara Rica de alma
De esas que no se olvidan
Belleza callada y mirada recogida
Ojos que ponen la zancadilla

RIFF 1
Quiero olvidar, quiero probar
Quiero olvidar, quiero probar

                             RIFF 2
Quiero probar el rojo de tus labios
                            RIFF 3
Quiero gastar mi vida entre tus brazos
              RIFF 2
Esos tacones baratos
Mira ya estas cerca otra vez

              RIFF 2
Si tú me dices ven con lindas sonrisas
            RIFF 3
Y yo te digo ten mis manos te acarician
          RIFF 2
Y me dices bien Que rica la vida
             RIFF 4
Y yo te digo arriba arriba arriba
                RIFF 5                RIFF 3*
Me resbalo en tu piel Y exprimimos los labios
                  RIFF 2*
Mira tus piernas morenas Con tacones baratos

RIFF 1
Diosa que has triturado esta rutina
Descongelados calendarios y horas asesinas
De pies gordos y noches cojas que no caminan
De aquella imbécil a la que di mi vida
Acércate y abre esta botella vacía
Ya no queda demasiado corazón
Ya no quedan palabras bonitas
Tu no la ves pero mi alma respira
Y me gustas chiquilla

RIFF 1
Quiero olvidar, quiero probar
Quiero olvidar, quiero probar

                             RIFF 2
Quiero probar el rojo de tus labios
                            RIFF 3
Quiero gastar mi vida entre tus brazos
              RIFF 2
Esos tacones baratos
Mira ya estas cerca otra vez

              RIFF 2
Si tú me dices ven con lindas sonrisas
            RIFF 3
Y yo te digo ten mis manos te acarician
          RIFF 2
Y me dices bien Que rica la vida
             RIFF 4
Y yo te digo arriba arriba arriba
                RIFF 5                RIFF 3*
Me resbalo en tu piel Y exprimimos los labios
                  RIFF 2*
Mira tus piernas morenas Con tacones baratos


e ---------------------------------------------
B ---------------------------------------------
G --7-7-5----------------7-7-5-----------------      Se Repite
D --7-7-5--7-5-7-8-7-5---7-7-5--7-5-7-9-7------
A --5-5-3--7-5-7-8-7-5---5-5-3--7-5-7-9-7------
E ---------5-3-5-6-5-3----------5-3-5-7-5------


    RIFF 2
Esos labios
                            RIFF 3
Quiero gastar mi vida entre tus brazos
              RIFF 2
Esos tacones baratos
Mira ya estas cerca otra vez

              RIFF 2
Si tú me dices ven con lindas sonrisas
            RIFF 3
Y yo te digo ten mis manos te acarician
          RIFF 2
Y me dices bien Que rica la vida
             RIFF 4
Y yo te digo arriba arriba arriba
                RIFF 5                RIFF 3*
Me resbalo en tu piel Y exprimimos los labios
                  RIFF 2*
Mira tus piernas morenas Con tacones baratos

e -----------------------
B -----------------------
G --5-7-9-7--------------
D --5-7-9-7-5-7----------
A --3-5-7-5-5-7----------
E ----------3-5----------



            
            
Suggest correction
Creating personal tab
Creating personal tab
You can edit any tab online and save it as your Personal.

You can edit, replace or remove any tab part or add personal notes – all changes will be seen only by you.

Personal tabs can be accessed anytime from any device, even offline.
Learn more »
Give kudos to tab author, rate the tab!
1 2 3 4 5
comments
print report bad tab
guest
Wanna post a correction for this tab? Suggest correction